Oops, an error
Loading. Please wait.

Boombox Generation Bass Tab

version 1
version 1

Whole song

Interactive

676 views 1 this week
no commentswrite comment
1 2 3 4 5
2 more votes to show rating
add to favorites
launch autoscroll
font size
0
reset
guitar tuner
Autoscroll
slow
fast
+/-
esc
set tempo
stop
Help us to improve Ultimate-Guitar.com Take our survey!
×
Author
Difficulty
novice
INTRO
G-----------------------------|
D-----------------------------| X2
A--4444-----------------------|
E-------5555-4444-5555--------|

G------------------------------------|
D------------------------------------|
A------------------------------------|
E-55-55-55-55-5555-44-44-44-44-4444-|

E--2-2

CHORUS
G-----------------------------|
D-----------------------------| X4
A--4444-----------------------|
E-------5555-4444-5555--------|

VERSE
G-----------------------------|
D-----------------------------| X2
A--4444-----------------------|
E-------5555-4444-5555--------|

G-----------------------------------|
D-----------------------------------|
A-----------------------------------|
E-55-55-55-55-5555-44-44-55-55-7777-|

G---------------------------------------------------|
D---------------------------------------------------|
A-44-44-44-44-4444----------------------------------|
E-----------------55-55-55-55-5555-44-44-55-55-7777-|

Chorus
G-----------------------------|
D-----------------------------| X4
A--4444-----------------------|
E-------5555-4444-5555--------|

Verse
G-----------------------------|
D-----------------------------| X2
A--4444-----------------------|
E-------5555-4444-5555--------|

G-----------------------------------|
D-----------------------------------|
A-----------------------------------|
E-55-55-55-55-5555-44-44-55-55-7777-|

G---------------------------------------------------|
D---------------------------------------------------| x3
A-44-44-44-44-4444----------------------------------|
E-----------------55-55-55-55-5555-44-44-55-55-7777-|

Chorus
G-----------------------------|
D-----------------------------| X4
A--4444-----------------------|
E-------5555-4444-5555--------|

Outro
G-----------------------------|
D-----------------------------|
A------44---------------------| x4
E----------55-44-55-77--------|

E---2--2
Suggest correction
Give kudos to tab author, rate the tab!
1 2 3 4 5
comments
print report bad tab
guest
You may want to rate the tab now too:
select rating
Wanna post a correction for this tab? Suggest correction