Oops, an error
Loading. Please wait.

Broken Heart Bass Tab

version 1
version 1

Whole song

Interactive

3,389 views 1 this week
no commentswrite comment
1 2 3 4 5
excellent!
x 6
add to favorites
launch autoscroll
font size
0
reset
guitar tuner
Tab Pro tools
  • play this tab
  • loop segment
  • change instrument
  • show fretboard
  • metronome
Autoscroll
slow
fast
+/-
esc
set tempo
stop
Contributor
-------------------------------------------------------------------------------
			 Broken Heart - Motion City Soundtrack
-------------------------------------------------------------------------------
Tabbed By : Valerie L
e-mail:  iloled@yahoo.com
Tuning: standard

Chorus
G|-------------------------------------|---------------------------------------------------------|
D|-------------------------------------|---------------------------------------------------------|
A|22222222----------4444444444444444-x2|-66666666-44444444-22222222------------------222222222222|
E|---------22222222--------------------|---------------------------22222222-00000000-------------|

Pre-Verse (0:59)
G|------------------------------------------------------------------------|
D|-4-4h6-33333333-11111111-----------------------------------------11-3---|
A|------------------------44444444-22222222-111111111-444444444444--------|
E|------------------------------------------------------------------------|

Verse, second time with the last two notes
G|---33------66-------33----------------------------------------------|
D|44----4-33----3--11----1----66----------------------------------1-3-|
A|-------------------------44----4-22222222-11111111-444444444444-----|
E|--------------------------------------------------------------------| x2

Chorus x1

Bridge
G|----------------------------------------|    |-----------------|
D|----------------------------------------|    |-----------------|
A|-------------------------------1h2p1----|    |-----------------|
E|0000000000000000-22222222222-2-------2--| x3 |000000000000-2~--|

"I'll destroy..."
G|---33------66-------33------------------------|
D|44----4-33----3--11----1----66----4-----------|
A|-------------------------44----22---2-1~--4~--|
E|----------------------------------------------| 

Chorus
G|-------------------------------------|-----------------------------------------------|
D|-------------------------------------|-----------------------------------------------|
A|22222222----------4444444444444444-x2|-66666666-44444444-22222222------------------2~|
E|---------22222222--------------------|---------------------------22222222-00000000---|

comments
print report bad tab
I want to post or [tab]
guest
You may want to rate the tab now too:
select rating
Please do not post tabs as comments. Select "correction" instead!