Oops, an error
Loading. Please wait.

Calling All Cops Bass Tab

1,229 views 1 this week
1 commentread comment
1 2 3 4 5
please rate
add to favorites
launch autoscroll
font size
0
reset
guitar tuner
Autoscroll
slow
fast
+/-
esc
set tempo
stop
Help us to improve Ultimate-Guitar.com Take our survey!
×
Author
-------------------------------------------------------------------------------
	            Calling All Cops - Motion City Soundtrack
-------------------------------------------------------------------------------

Tabbed By : Valerie L. 
e-mail: iloled@yahoo.com
Tuning: standard

Chorus "Calling all cops and autobots..."
G|-------------------------------------|
D|-------------------------------------|
A|-44444444----------11111111----------|
E|----------22222222----------44444444-| x2

Verse "Copy all cats..."
G|-------------------------------------|
D|-------------------------------------|
A|-44444444----------11111111----------|
E|----------22222222----------44444444-| x2

Pre-Verse, no vocals
G|-44444443----------------------------|
D|----------44444443-------------------|
A|-------------------4444444444444444--|
E|-------------------------------------|

Verse x4
Pre-Verse x1

bridge "When I'm awake..."
G|--------------------------------------|---------------------------------------|
D|--------------------------------------|---------------------------------------|
A|------------------44444444------------|------------------44-4h6p4---44-4h6p4--|
E|11111111-22222222----------4444444444-|11111111-22222222----------2----------4|

G|-----------------------------------------------------|
D|-----------------------------------------------------|
A|------------------44444444---------------------------|
E|11111111-22222222----------44444444-11111111-22222222|

Chorus x2
Verse x2
Pre-Verse x1

bridge
G|--------------------------------------|---------------------------------------|
D|--------------------------------------|---------------------------------------|
A|------------------44444444------------|------------------44-4h6p4---44-4h6p4--|
E|11111111-22222222----------4444444444-|11111111-22222222----------2----------4|

Outro
G|-----------------------|    |---------------|
D|-----------------------|    |---------------|
A|-44-4h6p4---44-4h6p4---|    |-2~------------|
E|----------2----------4-|x2  |------2~--4~---|
Suggest correction
What's this?
You can suggest a correction to this tab. Community and Mods will review your correction and vote to approve or reject it.
comments
We did not receive enough feedback on this tab! Please rate:
print report bad tab
1 2 3 4 5
1 comment total.
0 reply
bassbomb1193 560 wrote on January 30 2008, 09:33 pm

awesome tab sounds great

guest
You may want to rate the tab now too:
select rating
Please do not post tabs as comments. Select "correction" instead!