Oops, an error
Loading. Please wait.

Delirium Bass Tab

3,257 views 3 this week
no commentswrite comment
1 2 3 4 5
excellent!
x 4
add to favorites
launch autoscroll
font size
0
reset
guitar tuner
Autoscroll
slow
fast
+/-
esc
set tempo
stop
Help us to improve Ultimate-Guitar.com Take our survey!
×
Difficulty
novice
-----------------------------------------------------------------------------
			     Delirium - Motion City Soundtrack
-----------------------------------------------------------------------------

Tabbed By : Andy
e-mail: swans150@msu.edu

Tuning: Standard (EADG)

Verse:
0:00-0:12
G|--------------------------------------------------------------------------|
D|1515131313----------------1515-131313-------------------------------------|
A|------------1315----------------------1315/16\15-11-111111----------------|
E|-----------------16-141414------------------------------------------------|x2

Chorus:
0:12-0:24
G|--------------------------------------------------------------------------|
D|--------------------------------------------------------------------------|
A|------------------4444444444444444----------------------------------------|
E|11111111-44444444---------------------------------------------------------|
x2

Verse Two:
0:24-0:47
G|--------------------------------------------------------------------------|
D|1515131313----------------1515-131313-------------------------------------|
A|------------1315----------------------1315/16\15-11-111111----------------|
E|-----------------16-141414------------------------------------------------|
x2

Chorus:
0:48-1:11
G|--------------------------------------------------------------------------|
D|--------------------------------------------------------------------------|
A|------------------4444444444444444-------------------4444444444444--------|
E|11111111-44444444------------------11111111-44444444--------------642-----|

G|--------------------------------------------------------------------------|
D|--------------------------------------------------------------------------|
A|------------------4444444444444444-------------------4444444444444444-----|
E|11111111-44444444------------------11111111-44444444----------------------|

Verse Three:
1:12-1:35
G|--------------------------------------------------------------------------|
D|1515131313----------------1515-131313-------------------------------------|
A|------------1315----------------------1315/16\15-11-111111----------------|
E|-----------------16-141414------------------------------------------------|
x4

Chorus w/ variation at 1:56:
1:35-1:55
G|--------------------------------------------------------------------------|
D|--------------------------------------------------------------------------|
A|------------------4444444444444444-------------------4444444444444--------|
E|11111111-44444444------------------11111111-44444444--------------642-----|

G|--------------------------------------------------------------------------|
D|--------------------------------------------------------------------------|
A|------------------4444444444444444----------------------------------------|
E|11111111-44444444------------------11111111-44444444----------------------|

Variation/Bridge:
1:56-2:20
G|--------------------------------------------------------------------------|
D|---------------------------------------------------3333----3333-----------|
A|4-4-4-4-4-4-4-4-6-6-6-6-6-6-6-6-------------------------------------------|
E|-------------------------------6-6-6-6-6-6-6-6-2222----2222---------------|
x2

Chorus:
2:26-2:47
G|--------------------------------------------------------------------------|
D|--------------------------------------------------------------------------|
A|------------------4444444444444444-------------------4444444444444--------|
E|11111111-44444444------------------11111111-44444444--------------642-----|

G|--------------------------------------------------------------------------|
D|--------------------------------------------------------------------------|
A|------------------4444444444444444----------------------------------------|
E|11111111-44444444------------------11111111-44444444----------------------|

Variation/Bridge:
2:47-3:10
G|--------------------------------------------------------------------------|
D|---------------------------------------------------3333----3333-----------|
A|4-4-4-4-4-4-4-4-6-6-6-6-6-6-6-6-------------------------------------------|
E|-------------------------------6-6-6-6-6-6-6-6-2222----2222---------------|
x2

Outro:
3:15-3:17
(11=First fret played twice, not eleventh fret and 13=First and third frets, not thirteenth fret)
G|--------------------------------------------------------------------------|
D|3-11----------------------------------------------------------------------|
A|----13--------------------------------------------------------------------|
E|------41~-----------------------------------------------------------------|



| /  slide up
| \  slide down
| h  hammer-on
| p  pull-off
| ~  vibrato
| +  harmonic
| x  Mute note
=============================================================================
Suggest correction
comments
print report bad tab
guest
You may want to rate the tab now too:
select rating
Please do not post tabs as comments. Select "correction" instead!