Oops, an error
Loading. Please wait.

Delirium Tab

4,417 views 6 this week
no commentswrite comment
1 2 3 4 5
please rate
add to favorites
launch autoscroll
font size
0
reset
how to read this tab
guitar tuner
Autoscroll
slow
fast
+/-
esc
set tempo
stop
Help us to improve Ultimate-Guitar.com Take our survey!
×
Contributor
Difficulty
Tuning
birdman267 1,477
intermediate
D A D G B E
Pretty simple stuff really.
I think I've got it all in there.
I may try and tab the bass part later.
Hit me up with any corrections or comments.

"...And my eyes are pouring nightly."

Chorus Lead x2
e-------------------------------------------|
B-------------------------------------------|
G--8-10-8-6---------------------------------|
D------------8-10-8-6---8-10-8-6---8-10-8-6-|
A-------------------------------------------|
D-------------------------------------------|

e ---------------------------------|
B ---------------------------------|
G -5-4-5-3-------------------------|
D ---------8-10-8-6--8-10-8-6------|
A ----------------------------8--6-|
D ---------------------------------|


Chorus Rhythm: (Strumming)

"I swear the pharmaceuticals..."
e------------------------------------------|
B------------------------------------------|
G---------5---------8---------6------------|
D---------3---------6---------6------------|
A---------3---------6---------4------------|
D---------3---------6----------------------|

"The Things I take, The Things That Take Me"
e-----------|
B-----------|
G----6------|          (End on this.)
D----6------|
A----4------|
D-----------|

Riff #1:
e------------------------------------------------------|
B------------------------------------------------------|
G--13~-13~-------------------------8-8-8-8-8-8-8-8-----|
D-------------10-10-10-11-11-11-11---------------------|
A--11~-11~--------------------~------------------------|
D------------------------------------------------------|

e------------------------------------------------------|
B------------------------------------------------------|
G-----------------------------8-10-8-----------13~-13~-|
D--------10-10-10-11-11-11-11--------10----------------|
A------------------------~---------------------11~-11~-|
D------------------------------------------------------|

Chorus Lead & Rhythm

"I didn't know I'd get caught in the middle" (Strumming)
e--------------------------------------------|
B--------------------------------------------|
G---6---------8-------10---------------------|
D---6---------8-------8----------------------|
A---4---------6-------8----------------------|
D---------------------8-------~--------------|


"A myriad of bright ideas"
e--------------------------------------------------|
B--------------------------------------------------|
G-----------10-10-10-10--------------10-10-10-10---|
D-----------x--x--x--x---------------x--x--x--x----|
A-----------8--8--8--8---------------8--8--8--8----|
D--4-4-4-4------------------4-4-4-4----------------|


End With This (2:22)
e---------------------------------------------------------------------------|
B---------------------------------------------------------------------------|
G-----------10-10-10-10--------------10-10-10-10----------------------------|
D-----------x--x--x--x---------------x--x--x--x-----------------------------|
A-----------8--8--8--8---------------8--8--8--8-----------------------------|
D--4-4-4-4------------------4-4-4-4-------------4-4-4-1--4-4-4-1--4-4-4-4-4-|


Chorus
Catchy Part


Final Riff:
e--------------------------------------------|
B--------------------------------------------|
G---10-10--8-8---5-5--5\6--------------------|
D---x--x---x-x---x-x--x\4--------------------|
A---8--8---6-6---3-3--3\4--------------------|
D-----------------------4-----~--------------|
Suggest correction new What's this?
You can suggest a correction to this tab. Community and Mods will review your correction and vote to approve or reject it.
comments
We did not receive enough feedback on this tab! Please rate:
print report bad tab
1 2 3 4 5
guest
You may want to rate the tab now too:
select rating
Please do not post tabs as comments. Select "correction" instead!