Oops, an error
Loading. Please wait.

Disappear Tab

version 3
version 3

Whole song

2,161 views 1 this week
2 commentsread comments
1 2 3 4 5
2 more votes to show rating
add to favorites
launch autoscroll
font size
0
reset
how to read this tab
guitar tuner
Autoscroll
slow
fast
+/-
esc
set tempo
stop
Help us to improve Ultimate-Guitar.com Take our survey!
×
Author
I know there are others, but there were a few tweaks to make
so here we are :)

Tuning: Drop D


INTRO & FIRST VERSE

E|-----------------------------------------------------------------------|
B|-----------------------------------------------------------------------|
G|--3~------3~---3~-------------------3-3-3-3----------------------------|
D|--3~------3~---3~---4-4-4-4-6-6-6-6-3-3-3-3-3-3-3-3-4-4-4-4-6-6-6-6----|x3
A|--1~------1~---1~---4-4-4-4-6-6-6-6-1-1-1-1-3-3-3-3-4-4-4-4-6-6-6-6----|
D|--------------------4-4-4-4-6-6-6-6---------3-3-3-3-4-4-4-4-6-6-6-6----|

CHORUS

E|------------------------------------------------------------------------|
B|------------------------------------------------------------------------|
G|----------6-6-6-6-8-8-8-8-11-11-------------6-6-6-6-8-8-8-8-11-11-13-13-|
D|--4-4-4-4-6-6-6-6-8-8-8-8-11-11-6-6-4-4-4-4-6-6-6-6-8-8-8-8-11-11-13-13-|
A|--4-4-4-4-4-4-4-4-6-6-6-6--9--9-6-6-4-4-4-4-4-4-4-4-6-6-6-6--9--9-11-11-|
D|--4-4-4-4-----------------------6-6-4-4-4-4-----------------------------|

SOLO

E|-----------------------------------------------------------------|
B|-------------13-9---------11----------------13-9-----------------|
G|-9-10-9-11-8-----------------13-9-10-9-11-8----------------------|
D|------------------11-10-8------------------------11-10-8---------|
A|---------------------------------------------------------11-9-8~-|
D|-----------------------------------------------------------------|

SECOND VERSE

E|----------------------------------------------|
B|----------------------------------------------|
G|--------Nothing until "until it---6-----------|
D|--------sticks..."----------------6---6---8~--|
A|----------------------------------4---6---8~--|
D|--------------------------------------6---8~--|

BRIDGE

E|
B|-----------------------------------------------------------|
G|-8-8-8---8-8-8---8-8-8--------------3~--5~--6~--8~---------|
D|-8-8-8---8-8-8---8-8-8---3-3-3---x4-3~--5~--6~--8~-6-x2----|
A|-6-6-6---6-6-6---6-6-6---3-3-3------1~--3~--4~--6~-6-------|
D|-------6-------6-------6-3-3-3-6-------------------6-------|

E|-------------------------------------------------------------------------|
B|-------------------------------------------------------------------------|
G|----------6-6-6-6-8-8-8-8-11-11-------------6-6-6-6-8-8-8-8-11-11-13-13~-|
D|--4-4-4-4-6-6-6-6-8-8-8-8-11-11-6-6-4-4-4-4-6-6-6-6-8-8-8-8-11-11-13-13~-|
A|--4-4-4-4-4-4-4-4-6-6-6-6--9--9-6-6-4-4-4-4-4-4-4-4-6-6-6-6--9--9-11-11~-|
D|--4-4-4-4-----------------------6-6-4-4-4-4------------------------------|
    . . . . . . . . . . . .  .  . . . . . . . . . . . . . . .  .  .  .  .

And then the chorus again :)
Suggest correction
Give kudos to tab author, rate the tab!
1 2 3 4 5
comments
print report bad tab
2 comments total.
0 reply
TSOMHSP 51 Apr 21, 2010 11:43 PM

I'm gonna say that this is pretty much the same tab as the other but you put it in drop D. .... this song really doesn't call for it

0 reply
cofinboy 130 May 03, 2010 10:56 AM

I know, but parts are just made easier, and when i saw them last month it was in drop D :)

guest
You may want to rate the tab now too:
select rating
Wanna post a correction for this tab? Suggest correction