Oops, an error
Loading. Please wait.

Disappear Tab

version 4
version 4

Whole song

2,070 views 1 this week
no commentswrite comment
1 2 3 4 5
x 3
add to favorites
launch autoscroll
font size
0
reset
how to read this tab
guitar tuner
Autoscroll
slow
fast
+/-
esc
set tempo
stop
Help us to improve Ultimate-Guitar.com Take our survey!
×
Author
Difficulty
Tuning
intermediate
D# G# C# F# A# D#
Intro:
eb|------------------------------------------------------|
Bb|------------------------------------------------------|
Gb|--4~~~~~~~~~---4~~~-4~~~------------------------------|
Db|--4~~~~~~~~~---4~~~-4~~~-------5-------7--------------|
Ab|--2~~~~~~~~~---2~~~-2~~~-------5-x8----7-x8-----------|
Eb|-------------------------------3-------5--------------|



1st Verse:
eb|------------------------------------------------------|
Bb|------------------------------------------------------|   
Gb|----4--------6----------------------------------------|   Repeat
Db|----4-x8-----6-x8-----5---------7---------------------|     x3
Ab|----2--------4--------5-x8------7-x8------------------|
Eb|----------------------3---------5---------------------|



Chorus:
eb|-------------------------------------------------------| \
Bb|-------------------------------------------------------|  \
Gb|------------7--------9--------12-----------------------|   \
Db|--5---------7-x8-----9-x8-----12-x4----7---------------|    \
Ab|--5-x8------5--------7--------10-------7-x4------------|     \
Eb|--3------------------------------------5---------------|   Both
                                                            Halves of   
eb|-------------------------------------------------------|   Chorus
Bb|-------------------------------------------------------|     /
Gb|------------7--------9--------12-------14--------------|    /
Db|--5---------7-x8-----9-x8-----12-x4----14--------------|   /
Ab|--5-x8------5--------7--------10-------12--------------|  /
Eb|--3----------------------------------------------------| /



Short Solo:
eb|------------------------------------------------------|  \
Bb|------------------14------------12--------------------|   \
Gb|--11-12-11-14--------14------------14-----------------|    \
Db|---------------14-------12-11-9-----------------------|     \
Ab|------------------------------------------------------|    1st half 
Eb|------------------------------------------------------| 
                                                              
eb|------------------------------------------------------|
Bb|-----------------14-----------------------------------|    2nd half
Gb|--11-12-11-14-------14-------------4------------------|     /
Db|--------------14-------12-11-9-7-5--------------------|    /
Ab|------------------------------------------------------|   /
Eb|------------------------------------------------------|  /



First you breathe out then you have to breathe in. Lash yourself repeatedly

2nd Verse:
eb|------------------------------------------------------|
Bb|------------------------------------------------------|
Gb|-----------------7--------4---------------------------|
Db|-----------------7---7----4---------------------------|
Ab|-----------------5---7----2---------------------------|
Eb|---------------------5--------------------------------|
 until it sticks, until it sticks

eb|------------------------------------------------------|
Bb|------------------------------------------------------|   
Gb|----4--------6----------------------------------------|   Repeat
Db|----4-x8-----6-x8-----5---------7---------------------|     x3
Ab|----2--------4--------5-x8------7-x8------------------|
Eb|----------------------3---------5---------------------|



Chorus:
eb|-------------------------------------------------------| \
Bb|-------------------------------------------------------|  \
Gb|------------7--------9--------12-----------------------|   \
Db|--5---------7-x8-----9-x8-----12-x4----7---------------|    \
Ab|--5-x8------5--------7--------10-------7-x4------------|     \
Eb|--3------------------------------------5---------------|   Both
                                                            Halves of   
eb|-------------------------------------------------------|   Chorus
Bb|-------------------------------------------------------|     /
Gb|------------7--------9--------12-------14--------------|    /
Db|--5---------7-x8-----9-x8-----12-x4----14--------------|   /
Ab|--5-x8------5--------7--------10-------12--------------|  /
Eb|--3----------------------------------------------------| /



Bridge:
eb|--------------------------------------------------------------|
Bb|--------------------------------------------------------------|
Gb|-9-99-99-99-----9-99-99-99-----9-99-99-99-----------------7---|
Db|-9-99-99-99-7-9-9-99-99-99-7-9-9-99-99-99-7---4-44-4-44---7---|  x4
Ab|-7-77-77-77-7/9-7-77-77-77-7/9-7-77-77-77-7---4-44-4-44---5---|
Eb|------------5/7------------5/7------------5---2-22-2-22-------|

eb|---------------------------------------------|
Bb|---------------------------------------------|
Gb|-4-4-4--6-6-6--7-7-7--9-9-9------------------|
Db|-4-4-4--6-6-6--7-7-7--9-9-9--7-7-7-7---------|
Ab|-2-2-2--4-4-4--5-5-5--7-7-7--7-7-7-7---------|
Eb|-----------------------------5-5-5-5---------|

eb|---------------------------------------------|
Bb|---------------------------------------------|
Gb|-4-4-4--6-6-6--7-7-7--9-9-9--14-14-14--------|
Db|-4-4-4--6-6-6--7-7-7--9-9-9--14-14-14--------|
Ab|-2-2-2--4-4-4--5-5-5--7-7-7--12-12-12--------|
Eb|---------------------------------------------|

End of Bridge.


Final Chorus: Palm muted.
eb|-------------------------------------------------------| \
Bb|-------------------------------------------------------|  \
Gb|------------7--------9--------12-----------------------|   \
Db|--5---------7-x8-----9-x8-----12-x4----7---------------|    \
Ab|--5-x8------5--------7--------10-------7-x4------------|
Eb|--3------------------------------------5---------------|  2 Palm
                                                             Muted
eb|-------------------------------------------------------|  Parts
Bb|-------------------------------------------------------|
Gb|------------7--------9--------12~~~~~~-----------------|    /
Db|--5---------7-x8-----9-x8-----12~~~~~~-----------------|   /
Ab|--5-x8------5--------7--------10~~~~~~-----------------|  /
Eb|--3----------------------------------------------------| /

eb|-------------------------------------------------------| \
Bb|-------------------------------------------------------|  \
Gb|------------7--------9--------12-----------------------|   \
Db|--5---------7-x8-----9-x8-----12-x4----7---------------|    \
Ab|--5-x8------5--------7--------10-------7-x4------------|     \
Eb|--3------------------------------------5---------------| Repeat these
                                                               Twice
eb|-------------------------------------------------------|
Bb|-------------------------------------------------------|     /
Gb|------------7--------9--------12-------14--------------|    /
Db|--5---------7-x8-----9-x8-----12-x4----14-x4-----------|   /
Ab|--5-x8------5--------7--------10-------12--------------|  /
Eb|--3----------------------------------------------------| /

eb|-------------------------------------------------------|
Bb|-------------------------------------------------------|
Gb|--9--9-9-9-9-9-9---12-12-12-12---14-14-14-14-----------|
Db|--9--9-9-9-9-9-9---12-12-12-12---14-14-14-14-----------|
Ab|--7--7-7-7-7-7-7---10-10-10-10---12-12-12-12-----------|
Eb|-------------------------------------------------------|

eb|------------------|
Bb|------------------|
Gb|------------------|   End 
Db|--2~~~~~~~~~~-----|   on..
Ab|--2~~~~~~~~~~-----|
Eb|--0~~~~~~~~~~-----|
Suggest correction
Give kudos to tab author, rate the tab!
1 2 3 4 5
comments
print report bad tab
guest
You may want to rate the tab now too:
select rating
Wanna post a correction for this tab? Suggest correction