Oops, an error
Loading. Please wait.

Even If It Kills Me Tab

version 1
version 1

Intro

Whole song

4,451 views 1 this week
1 commentread comment
1 2 3 4 5
x 3
add to favorites
launch autoscroll
font size
0
reset
how to read this tab
guitar tuner
Autoscroll
slow
fast
+/-
esc
set tempo
stop
Help us to improve Ultimate-Guitar.com Take our survey!
×
Author
Capo
1st fret
           Even If It Kills Me                                         

This is the opening to the title track.  I'm not sure if this is completely correct,
but hopefully it will get you started.


Standard Tuning with Capo on 1
                                                                                    
|--------------------------|--------------------------|
|--------1-----------1-----|--------1-----------1-----|
|--------------------------|--------------------------|
|-----3-----3-----3-----3--|-----3-----3-----3-----3--| 
|--0-----------0-----------|--0-----------0-----------| 
|--------------------------|--------------------------| 


|--------------------------|--------------------------|
|--------1-----------1-----|--------1-----------1-----|
|--------------------------|--------------------------|
|-----3-----3-----3-----3--|-----3-----3-----3-----3--|
|--0-----------0-----------|--0-----------0-----------|                          
|--------------------------|--------------------------|
 
                                                  
|--------------------------|--------------------------|
|--------1-----------5-----|--------6-----------6-----|
|--------------------------|--------------------------|
|-----3-----3-----3-----3--|-----5-----5-----5-----5--|
|--0-----------5-----------|--6-----------6-----------|
|--------------------------|--------------------------|

                                                                                 
|--------------------------|--------------------------| 
|--------1-----------1-----|--------1-----------1-----| 
|--------------------------|--------------------------| 
|-----3-----3-----3-----3--|-----3-----3-----3-----3--| 
|--1-----------1-----------|--1-----------1-----------| 
|--------------------------|--------------------------|


|--------------------------|--------------------------|
|--------1-----------5-----|--------6-----------6-----|
|--------------------------|--------------------------|
|-----3-----3-----3-----3--|-----5-----5-----5-----5--|
|--0-----------5-----------|--6-----------6-----------|
|--------------------------|--------------------------|

                                                                                 
|--------------------------|--------------------------|
|--------6-----------6-----|--------1-----------1-----|
|--------------------------|--------------------------|
|-----5-----5-----5-----5--|-----3-----3-----3-----3--|
|--6-----------6-----------|--1-----------1-----------|
|--------------------------|--------------------------|

                                                                                 
|--------------------------|--------------------------| 
|--------1-----------5-----|--------6-----------6-----| 
|--------------------------|--------------------------| 
|-----3-----3-----3-----3--|-----5-----5-----5-----5--| 
|--0-----------5-----------|--6-----------6-----------| 
|--------------------------|--------------------------| 

                                                                                 
|--------------------------|--------------------------| 
|--------1-----------1-----|--------1-----------1-----| 
|--------------------------|--------------------------| 
|-----3-----3-----3-----3--|-----3-----3-----3-----3--| 
|--1-----------1-----------|--1-----------1-----------| 
|--------------------------|--------------------------|

                                                          
|--------------------------|--------------------------| 
|--------1-----------5-----|--------6-----------6-----| 
|--------------------------|--------------------------| 
|-----3-----3-----3-----3--|-----5-----5-----5-----5--| 
|--0-----------5-----------|--6-----------6-----------| 
|--------------------------|--------------------------| 
                                                          
                       
|--------------------------|--------------------------|
|--------6-----------6-----|--------1-----------1-----|
|--------------------------|--------------------------|
|-----5-----5-----5-----5--|-----3-----3-----3-----3--|
|--6-----------6-----------|--1-----------1-----------|
|--------------------------|--------------------------|


|--------------------------|--------------------------| 
|--------1-----------5-----|--------6-----------6-----| 
|--------------------------|--------------------------| 
|-----3-----3-----3-----3--|-----5-----5-----5-----5--| 
|--0-----------5-----------|--6-----------6-----------| 
|--------------------------|--------------------------| 

                                                                                 
|--------------------------|--------------------------| 
|--------1-----------1-----|--------1-----------1-----| 
|--------------------------|--------------------------| 
|-----3-----3-----3-----3--|-----3-----3-----3-----3--| 
|--1-----------1-----------|--1-----------1-----------| 
|--------------------------|--------------------------|

                                                                                 
|--------------------------|--------------------------| 
|--------1-----------5-----|--------6-----------6-----| 
|--------------------------|--------------------------| 
|-----3-----3-----3-----3--|-----5-----5-----5-----5--| 
|--0-----------5-----------|--6-----------6-----------| 
|--------------------------|--------------------------| 
                                                          
                       
|--------------------------|--------------------------|
|--------6-----------6-----|--------1-----------1-----|
|--------------------------|--------------------------|
|-----5-----5-----5-----5--|-----3-----3-----3-----3--|
|--6-----------6-----------|--1-----------1-----------|
|--------------------------|--------------------------|


-Nik
Suggest correction
Give kudos to tab author, rate the tab!
1 2 3 4 5
comments
print report bad tab
1 comment total.
+1 reply
>>Eric<< 30 Oct 07, 2007 04:40 PM

Very Nice. Thanks for tabbing this. 5*

guest
You may want to rate the tab now too:
select rating
Wanna post a correction for this tab? Suggest correction