Oops, an error
Loading. Please wait.

Even If It Kills Me Tab

version 1
version 1

Whole song

4,277 views 1 this week
no commentswrite comment
1 2 3 4 5
x 4
add to favorites
launch autoscroll
font size
0
reset
how to read this tab
guitar tuner
Autoscroll
slow
fast
+/-
esc
set tempo
stop
Help us to improve Ultimate-Guitar.com Take our survey!
×
Author
Difficulty
Capo
intermediate
4th fret
Standard tuning capo 4

e|----------------------------------------------------------------|
B|----------------------------------------------------------------|
G|-----2-------2-------2-------2-------2-------2-------2-------2--|
D|---0---0---0---0---0---0---0---0---0---0---0---0---0---0---0---0|
A|----------------------------------------------------------------|
E|-2-------2-------2-------2-------2-------2-------2-------2------|

 I've got a lot of things to do tonight...
|----------------------------------------------------------------|
|-------------2-------3-------3----------------------------------|
|-----2-------------------------------2-------2-------2-------2--|
|---0---0---0---0---0---0---0---0---0---0---0---0---0---0---0---0|
|---------2-------3-------3--------------------------------------|
|-2-------------------------------3-------3-------3-------3------|

 I'm so sick of making lists of things I'll never finish...
|----------------------------------------------------------------|
|-------------2-------3-------3-------3-------3------------------|
|-----2-----------------------------------------------2-------2--|
|---0---0---0---0---0---0---0---0---0---0---0---0---0---0---0---0|
|---------2-------3-------3-------3-------3----------------------|
|-2-----------------------------------------------3-------3------|

 I've lived here for the last 12 years...
|----------------------------------------------------------------|
|-------------2-------3-------3----------------------------------|
|-----2-------------------------------2-------2-------2-------2--|
|---0---0---0---0---0---0---0---0---0---0---0---0---0---0---0---0|
|---------2-------3-------3--------------------------------------|
|-2-------------------------------3-------3-------3-------3------|

 Since early 1995, all my shit has been in boxes...
|----------------------------------------------------------------|
|-------------2-------3-------3-------3-------3------------------|
|-----2-----------------------------------------------2-------2--|
|---0---0---0---0---0---0---0---0---0---0---0---0---0---0---0---0|
|---------2-------3-------3-------3-------3----------------------|
|-2-----------------------------------------------3-------3------|

 And if I had a little more time to kill...
|----------------------------------------------------------------|
|-------------2-------3-------3----------------------------------|
|-----2-------------------------------2-------2-------2-------2--|
|---0---0---0---0---0---0---0---0---0---0---0---0---0---0---0---0|
|---------2-------3-------3--------------------------------------|
|-2-------------------------------3-------3-------3-------3------|

 I'd settle every little stupid thing, yeah you'd think that I would...
|----------------------------------------------------------------|
|-------------2-------3-------3-------3-------3------------------|
|-----2-----------------------------------------------2-------2--|
|---0---0---0---0---0---0---0---0---0---0---0---0---0---0---0---0|
|---------2-------3-------3-------3-------3----------------------|
|-2-----------------------------------------------3-------3------|

 But I'm too tired to go to sleep tonight...
|----------------------------------------------------------------|
|-------------------------------------------------7-7-7-7-5-5-5-5|
|-7-7-7-7-7-7-7-7-7-7-7-7-7-7-7-7-7-7-7-7-7-7-7-7-7-7-7-7-7-7-7-7|
|-7-7-7-7-7-7-7-7-7-7-7-7-7-7-7-7-7-7-7-7-7-7-7-7----------------|
|----------------------------------------------------------------|
|----------------------------------------------------------------|

 And I'm too weak to follow dreams tonight...
|----------------------------------------------------------------|
|----------------------------------------------------------------|
|-7-7-7-7-7-7-7-7-7-7-7-7-7-7-7-7-7-7-7-7-7-7-7-7-7-7-7-7-7-7-7-7|
|-7-7-7-7-7-7-7-7-7-7-7-7-7-7-7-7-7-7-7-7-7-7-7-7-7-7-7-7-7-7-7-7|
|----------------------------------------------------------------|
|----------------------------------------------------------------|

 For the first time in a long time I can say that I wanna try...
|----------------------------------------------------------------|
|----------------------------------------------------------------|
|-7-7-7-7-7-7-7-7------------------------------------------------|
|-7-7-7-7-7-7-7-7-5-5-5-5-5-5-5-5-2-2-2-2-2-2-2-2-7-7-7-7-7-7-7-7|
|-5-5-5-5-5-5-5-5-5-5-5-5-5-5-5-5-2-2-2-2-2-2-2-2-7-7-7-7-7-7-7-7|
|-----------------3-3-3-3-3-3-3-3-0-0-0-0-0-0-0-0-5-5-5-5-5-5-5-5|

 To get better and overcome each moment in my own way...
|----------------------------------------------------------------|
|----------------------------------------------------------------|
|-7-7-7-7-7-7-7-7------------------------------------------------|
|-7-7-7-7-7-7-7-7-5-5-5-5-5-5-5-5-2-2-2-2-2-2-2-2-7-7~~~~~~~~----|
|-5-5-5-5-5-5-5-5-5-5-5-5-5-5-5-5-2-2-2-2-2-2-2-2-7-7~~~~~~~~----|
|-----------------3-3-3-3-2-2-2-2-0-0-0-0-0-0-0-0-5-5~~~~~~~~----|


|--------------------------------|
|--------------------------------|
|-----2-------2-------2-------2--|
|---0---0---0---0---0---0---0---0|
|--------------------------------|
|-2-------2-------2-------2------|

 I wonder if I'll ever lose my mind...
|----------------------------------------------------------------|
|-------------2-------3-------3----------------------------------|
|-----2-------------------------------2-------2-------2-------2--|
|---0---0---0---0---0---0---0---0---0---0---0---0---0---0---0---0|
|---------2-------3-------3--------------------------------------|
|-2-------------------------------3-------3-------3-------3------|


 I tried hard for awhile, but then I kinda gave up. . .
|----------------------------------------------------------------|
|-------------2-------3-------3-------3-------3------------------|
|-----2-----------------------------------------------2-------2--|
|---0---0---0---0---0---0---0---0---0---0---0---0---0---0---0---0|
|---------2-------3-------3-------3-------3----------------------|
|-2-----------------------------------------------3-------3------|


 Winter is a killer when the sun goes down
|----------------------------------------------------------------|
|-------------2-------3-------3----------------------------------|
|-----2-------------------------------2-------2-------2-------2--|
|---0---0---0---0---0---0---0---0---0---0---0---0---0---0---0---0|
|---------2-------3-------3--------------------------------------|
|-2-------------------------------3-------3-------3-------3------|

 I’m really not as stubborn as I seem, said the knuckle to the concrete
|----------------------------------------------------------------|
|-------------2-------3-------3-------3-------3------------------|
|-----2-----------------------------------------------2-------2--|
|---0---0---0---0---0---0---0---0---0---0---0---0---0---0---0---0|
|---------2-------3-------3-------3-------3----------------------|
|-2-----------------------------------------------3-------3------|

 But I'm too tired to go to sleep tonight...
|----------------------------------------------------------------|
|-------------------------------------------------7-7-7-7-5-5-5-5|
|-7-7-7-7-7-7-7-7-7-7-7-7-7-7-7-7-7-7-7-7-7-7-7-7-7-7-7-7-7-7-7-7|
|-7-7-7-7-7-7-7-7-7-7-7-7-7-7-7-7-7-7-7-7-7-7-7-7----------------|
|----------------------------------------------------------------|
|----------------------------------------------------------------|

 And I'm too weak to follow dreams tonight...
|----------------------------------------------------------------|
|----------------------------------------------------------------|
|-7-7-7-7-7-7-7-7-7-7-7-7-7-7-7-7-7-7-7-7-7-7-7-7-7-7-7-7-7-7-7-7|
|-7-7-7-7-7-7-7-7-7-7-7-7-7-7-7-7-7-7-7-7-7-7-7-7-7-7-7-7-7-7-7-7|
|----------------------------------------------------------------|
|----------------------------------------------------------------|

 For the first time in a long time I can say that I wanna try...
|----------------------------------------------------------------|
|----------------------------------------------------------------|
|-7-7-7-7-7-7-7-7------------------------------------------------|
|-7-7-7-7-7-7-7-7-5-5-5-5-5-5-5-5-2-2-2-2-2-2-2-2-7-7-7-7-7-7-7-7|
|-5-5-5-5-5-5-5-5-5-5-5-5-5-5-5-5-2-2-2-2-2-2-2-2-7-7-7-7-7-7-7-7|
|-----------------3-3-3-3-3-3-3-3-0-0-0-0-0-0-0-0-5-5-5-5-5-5-5-5|

 To get better and overcome each moment in my own way...
|----------------------------------------------------------------|
|----------------------------------------------------------------|
|-7-7-7-7-7-7-7-7------------------------------------------------|
|-7-7-7-7-7-7-7-7-5-5-5-5-5-5-5-5-2-2-2-2-2-2-2-2-7-7~~~~~~~~----|
|-5-5-5-5-5-5-5-5-5-5-5-5-5-5-5-5-2-2-2-2-2-2-2-2-7-7~~~~~~~~----|
|-----------------3-3-3-3-2-2-2-2-0-0-0-0-0-0-0-0-5-5~~~~~~~~----|


|----------------------------------------------------------------|
|----------------------------------------------------------------|
|-7-7-7-7-7-7-7-7-5-5-5-5-5-5-5-5--------------------------------|
|-7-7-7-7-7-7-7-7-5-5-5-5-5-5-5-5-5-5-5-5-5-5-5-5-5-5-5-5-5-5-5-5|
|-5-5-5-5-5-5-5-5-3-3-3-3-3-3-3-3-5-5-5-5-5-5-5-5-5-5-5-5-5-5-5-5|
|---------------------------------3-3-3-3-3-3-3-3-3-3-3-3-3-3-3-3|


|----------------------------------------------------------------|
|----------------------------------------------------------------|
|-7-7-7-7-7-7-7-7-5-5-5-5-5-5-5-5-5-5-5-5-5-5-5-5----------------|
|-7-7-7-7-7-7-7-7-5-5-5-5-5-5-5-5-5-5-5-5-5-5-5-5-5-5-5-5-5-5-5-5|
|-5-5-5-5-5-5-5-5-3-3-3-3-3-3-3-3-3-3-3-3-3-3-3-3-5-5-5-5-5-5-5-5|
|-------------------------------------------------3-3-3-3-3-3-3-3|


|----------------------------------------------------------------|
|----------------------------------------------------------------|
|-7-7-7-7-7-7-7-7-5-5-5-5-5-5-5-5--------------------------------|
|-7-7-7-7-7-7-7-7-5-5-5-5-5-5-5-5-5-5-5-5-5-5-5-5-5-5-5-5-5-5-5-5|
|-5-5-5-5-5-5-5-5-3-3-3-3-3-3-3-3-5-5-5-5-5-5-5-5-5-5-5-5-5-5-5-5|
|---------------------------------3-3-3-3-3-3-3-3-3-3-3-3-3-3-3-3|


|----------------------------------------------------------------|
|----------------------------------------------------------------|
|-7-7-7-7-7-7-7-7-5-5-5-5-5-5-5-5-5-5-5-5-5-5-5-5----------------|
|-7-7-7-7-7-7-7-7-5-5-5-5-5-5-5-5-5-5-5-5-5-5-5-5-5-5-5-5-5-5-5-5|
|-5-5-5-5-5-5-5-5-3-3-3-3-3-3-3-3-3-3-3-3-3-3-3-3-5-5-5-5-5-5-5-5|
|-------------------------------------------------3-3-3-3-3-3-3-3|

 I’m not saying that I’m giving up...
|----------------------------------------------------------------|
|----------------------------------------------------------------|
|-7-7-7-7-7-7-7-7-5-5-5-5-5-5-5-5--------------------------------|
|-7-7-7-7-7-7-7-7-5-5-5-5-5-5-5-5-5-5-5-5-5-5-5-5-5-5-5-5-5-5-5-5|
|-5-5-5-5-5-5-5-5-3-3-3-3-3-3-3-3-5-5-5-5-5-5-5-5-5-5-5-5-5-5-5-5|
|---------------------------------3-3-3-3-3-3-3-3-3-3-3-3-3-3-3-3|

 I’m just trying not to think as much as I used to...
|----------------------------------------------------------------|
|----------------------------------------------------------------|
|-7-7-7-7-7-7-7-7-5-5-5-5-5-5-5-5-5-5-5-5-5-5-5-5----------------|
|-7-7-7-7-7-7-7-7-5-5-5-5-5-5-5-5-5-5-5-5-5-5-5-5-5-5-5-5-5-5-5-5|
|-5-5-5-5-5-5-5-5-3-3-3-3-3-3-3-3-3-3-3-3-3-3-3-3-5-5-5-5-5-5-5-5|
|-------------------------------------------------3-3-3-3-3-3-3-3|

 Cause never is a lonely little messed up word...
|----------------------------------------------------------------|
|----------------------------------------------------------------|
|-7-7-7-7-7-7-7-7-5-5-5-5-5-5-5-5--------------------------------|
|-7-7-7-7-7-7-7-7-5-5-5-5-5-5-5-5-5-5-5-5-5-5-5-5-5-5-5-5-5-5-5-5|
|-5-5-5-5-5-5-5-5-3-3-3-3-3-3-3-3-5-5-5-5-5-5-5-5-5-5-5-5-5-5-5-5|
|---------------------------------3-3-3-3-3-3-3-3-3-3-3-3-3-3-3-3|

 Maybe I’ll get it right someday...
|----------------------------------------------------------------|
|----------------------------------------------------------------|
|-7-7-7-7-7-7-7-7-5-5-5-5-5-5-5-5-5-5-5-5-5-5-5-5----------------|
|-7-7-7-7-7-7-7-7-5-5-5-5-5-5-5-5-5-5-5-5-5-5-5-5----------------|
|-5-5-5-5-5-5-5-5-3-3-3-3-3-3-3-3-3-3-3-3-3-3-3-3----------------|
|----------------------------------------------------------------|

For the first time in a long time I can say that I wanna try...
|----------------------------------------------------------------|
|----------------------------------------------------------------|
|-7-7-7-7-7-7-7-7------------------------------------------------|
|-7-7-7-7-7-7-7-7-5-5-5-5-5-5-5-5-2-2-2-2-2-2-2-2-7-7-7-7-7-7-7-7|
|-5-5-5-5-5-5-5-5-5-5-5-5-5-5-5-5-2-2-2-2-2-2-2-2-7-7-7-7-7-7-7-7|
|-----------------3-3-3-3-3-3-3-3-0-0-0-0-0-0-0-0-5-5-5-5-5-5-5-5|

 I feel helpless for the most part but I’m learning to open my eyes...
|----------------------------------------------------------------|
|----------------------------------------------------------------|
|-7-7-7-7-7-7-7-7------------------------------------------------|
|-7-7-7-7-7-7-7-7-5-5-5-5-5-5-5-5-2-2-2-2-2-2-2-2-7-7-7-7-7-7-7-7|
|-5-5-5-5-5-5-5-5-5-5-5-5-5-5-5-5-2-2-2-2-2-2-2-2-7-7-7-7-7-7-7-7|
|-----------------3-3-3-3-3-3-3-3-0-0-0-0-0-0-0-0-5-5-5-5-5-5-5-5|

 And the sad truth of the matter is I’ll never get over it, but I’m gonna try...
|----------------------------------------------------------------|
|----------------------------------------------------------------|
|-7-7-7-7-7-7-7-7------------------------------------------------|
|-7-7-7-7-7-7-7-7-5-5-5-5-5-5-5-5-2-2-2-2-2-2-2-2-7-7-7-7-7-7-7-7|
|-5-5-5-5-5-5-5-5-5-5-5-5-5-5-5-5-2-2-2-2-2-2-2-2-7-7-7-7-7-7-7-7|
|-----------------3-3-3-3-3-3-3-3-0-0-0-0-0-0-0-0-5-5-5-5-5-5-5-5|

 To get better and overcome each moment in my own way...
|----------------------------------------------------------------|
|----------------------------------------------------------------|
|---7-7-7-7-7-7-7------------------------------------------------|
|---7-7-7-7-7-7-7-5-5-5-5-5-5-5-5-2-2-2-2-2-2-2-2-7-7~~~~~~~~----|
|---5-5-5-5-5-5-5-5-5-5-5-5-5-5-5-2-2-2-2-2-2-2-2-7-7~~~~~~~~----|
|-----------------3-3-3-3-2-2-2-2-0-0-0-0-0-0-0-0-5-5~~~~~~~~----|


|--------------------------------|
|--------------------------------|
|-----2-------2-------2-------2--|
|---0---0---0---0---0---0---0---0|
|--------------------------------|
|-2-------2-------2-------2------|

 I so wanna get back on track...
|----------------------------------------------------------------|
|-------------2-------3-------3----------------------------------|
|-----2-------------------------------2-------2-------2-------2--|
|---0---0---0---0---0---0---0---0---0---0---0---0---0---0---0---0|
|---------2-------3-------3--------------------------------------|
|-2-------------------------------3-------3-------3-------3------|

 And I’ll do whatever it takes even if it kills me...
|----------------------------------------------------------------|
|-------------2-------3-------3-------3-------3------------------|
|-----2----------------------------------------------------------|
|---0---0---0---0---0---0---0---0---0---0---0---0-0~~~~~~~~------|
|---------2-------3-------3-------3-------3----------------------|
|-2-----------------------------------------------3~~~~~~~~------|

I tabbed it by ear, so there could be a few mistakes here and there, but I feel it's 
accurate. Enjoy! :D
Suggest correction
comments
print report bad tab
guest
You may want to rate the tab now too:
select rating
Wanna post a correction for this tab? Suggest correction