Oops, an error
Loading. Please wait.

Everything Is Alright Tab

version 1
version 1

Whole song

Interactive

42,930 views 54 this week
11 commentsread comments
1 2 3 4 5
accurate
x 25
add to favorites
launch autoscroll
font size
0
reset
how to read this tab
guitar tuner
Autoscroll
slow
fast
+/-
esc
set tempo
stop
Help us to improve Ultimate-Guitar.com Take our survey!
×
Author
-----------------------------------------------------------------------------
		          -MOTION CITY SOUNDTRACK-
		           "Everything's Alright"
-----------------------------------------------------------------------------
Tabbed by: Jimmy "Tantalizing Beast" Gonzalez
Email: dtex9002@yahoo.com
Tuning: Standard (EADGBe)

Update (Aug.21,2005):  Fixed up Moog part.  It's a tricky part; hopefully I got it
right this time

This is the second Motion City Soundtrack tab that I've made.  I think it's pretty
good.  Comment if anything is out of place.



Intro (0:06-0:17) - Guitar 2 
e|----------------------------------| (x2)
B|----------------------------------|
G|--8-------5-----------------------|
D|--8-(x6)--5-(x8)--3-------6-------|
A|--6-------3-------3-(x6)--6-(x6)--|
E|------------------1-------4-------|

Intro (0:18-0:28) - Guitar 2
e|----------------------------------| (x2)
B|----------------------------------|
G|--8---------------5---------------|
D|--8-(x6)--6-------5-(x6)--6-------|
A|--6-------6-(x6)--3-------6-(x6)--|
E|----------4---------------4-------|

Intro (0:07-0:28) - Moog (Transposed for Guitar 1)
e|--3---3-----3-4-6-3------3---3-----3-4-3-1-1--| (x2)
B|---4---4---4-------3s4----4---4---4---------4-|
G|----------------------------------------------|
D|----------------------------------------------|
A|----------------------------------------------|
E|----------------------------------------------|






Verse (0:29-0:40) - Guitar 1
e|------------------------| You Can Use The Whammy Bar Here
B|------------------------|
G|--8~----5~--------------|
D|--8~----3~----3~----6~--|
A|--6~----3~----3~----6~--|
E|--------------1~----4~--|






Prechorus (0:41-0:53) - Guitar 2
e|--------------------------------------| (Palm-muted)
B|--------------------------------------|
G|--8--------5--------------------------|
D|--8-(x16)--5-(x16)--3--------6--------|
A|--6--------3--------3-(x16)--6-(x16)--|
E|--------------------1--------4--------|






Chorus (0:54-1:04) - Moog (Transposed for Guitar 1)
e|--3---3-----3-4-6-3------3---3-----3-4-3-1-1--| (x2)
B|---4---4---4-------3s4----4---4---4---------4-|
G|----------------------------------------------|
D|----------------------------------------------|
A|----------------------------------------------|
E|----------------------------------------------|

Chorus (0:54-1:04) - Guitar 2
e|----------------------------------| (x2)
B|----------------------------------|
G|--8---------------5---------------|
D|--8-(x6)--6-------5-(x6)--6-------|
A|--6-------6-(x6)--3-------6-(x6)--|
E|----------4---------------4-------|






Verse (1:05-1:17)

No Guitar






Prechorus (1:18-1:29) - Guitar 2
e|--------------------------------------| (Palm-muted)
B|--------------------------------------|
G|--8--------5--------------------------|
D|--8-(x16)--5-(x16)--3--------6--------|
A|--6--------3--------3-(x16)--6-(x16)--|
E|--------------------1--------4--------|

Prechorus (1:23) - Guitar 1
e|-------------------------------| 
B|-------------------------------|
G|------5--5---------------------|
D|------5--5-(slide down)--------|
A|------3--3---------------------|
E|-------------------------------|







Chorus (1:30-1:41) - Moog (Transposed for Guitar 1)
e|--3---3-----3-4-6-3------3---3-----3-4-3-1-1--| (x2)
B|---4---4---4-------3s4----4---4---4---------4-|
G|----------------------------------------------|
D|----------------------------------------------|
A|----------------------------------------------|
E|----------------------------------------------|

Chorus (1:30-1:41) - Guitar 2
e|----------------------------------| (x2)
B|----------------------------------|
G|--8---------------5---------------|
D|--8-(x6)--6-------5-(x6)--6-------|
A|--6-------6-(x6)--3-------6-(x6)--|
E|----------4---------------4-------|





Bridge (1:41-2:05) - Guitar 2
e|--------------------------------------------| (x4)
B|--------------------------------------------|
G|--7--5--8----7--5--8(~)---------------------|
D|--7--5--8----7--5--8(~)(only on last time)--|
A|--5--3--6----5--3--6(~)---------------------|
E|--------------------------------------------|

Bridge (1:55) (1:59) (2:01) -  Guitar 1
e|------------------------------| 
B|----------------3h4-----------|
G|------------3h5---------------|
D|------------------------------|
A|------------------------------|
E|------------------------------|

Bridge (2:06-2:12) -  Guitar 1
e|------------------------------| 
B|------------------------------|
G|----------5~------------------|
D|----------5~----3~------------|
A|----------3~----3~------------|
E|----------------1~------------|

Bridge (2:13-2:16) -  Guitar 1 and 2
e|------------------------------| 
B|------------------------------|
G|------------------------------|
D|--------6---------6-----------|
A|--------6-(x16)---6-----------|
E|--------4---------4-----------|






Prechorus (2:17-2:40) - Guitar 1 and 2 
e|--------------------------------------| (x2)
B|--------------------------------------|
G|--8--------5--------------------------|
D|--8-(x16)--5-(x16)--3--------6--------|
A|--6--------3--------3-(x16)--6-(x16)--|
E|--------------------1--------4--------|

There are some little moog notes floating in the background and are just barely
audible.  I can't really decipher them.




Chorus (2:41-3:03) - Moog (Transposed for Guitar 1)
e|--3---3-----3-4-6-3------3---3-----3-4-3-1-1--| (x2)
B|---4---4---4-------3s4----4---4---4---------4-|
G|----------------------------------------------|
D|----------------------------------------------|
A|----------------------------------------------|
E|----------------------------------------------|

Chorus (2:41-3:03) - Guitar 2
e|----------------------------------| (x4)
B|----------------------------------|
G|--8---------------5---------------|
D|--8-(x6)--6-------5-(x6)--6-------|
A|--6-------6-(x6)--3-------6-(x6)--|
E|----------4---------------4-------|





Ending (3:04-3:25) - Guitar 2
e|---------------------------------| (x4)
B|---------------------------------|
G|--7--5--3(~)---------------------|
D|--7--5--3(~)(only on last time)--|
A|--5--3--1(~)---------------------|
E|---------------------------------|
Suggest correction
What's this?
You can suggest a correction to this tab. Community and Mods will review your correction and vote to approve or reject it.
comments
print report bad tab
11 comments total. Showing first comments.
+2 reply
AnjiRockah 27 wrote on October 5 2005, 03:29 pm

kickass tab
MCS rules!!

+2 reply
GNRAGE_2010 584 wrote on January 26 2006, 08:31 pm

The ending is wrong, instead of this...
Ending (3:04-3:25) - Guitar 2
e|---------------------------------| (x4)
B|---------------------------------|
G|--7--5--3(~)---------------------|
D|--7--5--3(~)(only on last time)--|
A|--5--3--1(~)---------------------|
E|---------------------------------|



It should be
Ending (3:04-3:25) - Guitar 2
e|---------------------------------| (x4)
B|---------------------------------|
G|--7--5--8(~)---------------------|
D|--7--5--8(~)(only on last time)--|
A|--5--3--6(~)---------------------|
E|---------------------------------|

+2 reply
shadypinoy28 41 wrote on April 24 2006, 08:11 pm

dude instead of this for guitar ones bridge... it should be

Bridge (1:55) (1:59) (2:01) - Guitar 1
e|------------------------------|
B|----------------3h4-----------|
G|------------3h5---------------|
D|------------------------------|
A|------------------------------|
E|------------------------------|

this
Bridge (1:55) (1:59) (2:01) - Guitar 1
e|--------------8h11------------|
B|---------9h11-----------------|
G|------------------------------|
D|------------------------------|
A|------------------------------|
E|------------------------------|

guest
You may want to rate the tab now too:
select rating
Please do not post tabs as comments. Select "correction" instead!