Oops, an error
Loading. Please wait.

Everything Is Alright Bass Tab

version 2
version 2

Whole song

Interactive

996 views 1 this week
no commentswrite comment
1 2 3 4 5
3 more votes to show rating
add to favorites
launch autoscroll
font size
0
reset
guitar tuner
Autoscroll
slow
fast
+/-
esc
set tempo
stop
Help us to improve Ultimate-Guitar.com Take our survey!
×
Author
Difficulty
intermediate
EVERYTHING IS ALRIGHT

tuning: Eb A D G
its weird tuning but their bass player
only tunes down one string
00:01
|----|x6
|----|
|----|
|-5\-|

pre-verse/chorus
|---------------------------------|x2
|---------------------------------|
|-66666-6---------33333-3---------|
|---------55555-5---------55555-5-|

verse
|----------------|
|----------------|
|-6~--3~---------|
|---------2~--5~-|

|------------------------------------------------------------------|
|------------------------------------------------------------------|
|-66666666666666663333333333333333---------------------------------|
|---------------------------------22222222222222225555555555555555-|

chorus
|---------------------------------|x2
|---------------------------------|
|-66666-6---------33333-3---------|
|---------55555-5---------55555-5-|

verse
|------------------------------------------------------------------|x2
|------------------------------------------------------------------|
|-66666666666666663333333333333333---------------------------------|
|---------------------------------22222222222222225555555555555555-|

chorus
|---------------------------------|x2
|---------------------------------|
|-66666-6---------33333-3---------|
|---------55555-5---------55555-5-|

bridge
|-----------------|x7
|-----------------|
|-555333----------|
|-------000000000-|

|----------|
|----------|
|-555333---|
|-------0~-|

|--------------------|
|--------------------|
|--------------------|
|-5555555555555555-5-|

verse
|------------------------------------------------------------------|x2
|------------------------------------------------------------------|
|-66666666666666663333333333333333---------------------------------|
|---------------------------------22222222222222225555555555555555-|

chorus
|---------------------------------|x4
|---------------------------------|
|-66666-6---------33333-3---------|
|---------55555-5---------55555-5-|

outro
|-----------------|x3
|-----------------|
|-555333----------|
|-------000000000-|

|----------|
|----------|
|-555333---|
|-------0~-|
===================================================================================
Suggest correction
Give kudos to tab author, rate the tab!
1 2 3 4 5
comments
print report bad tab
guest
You may want to rate the tab now too:
select rating
Wanna post a correction for this tab? Suggest correction