Oops, an error
Loading. Please wait.

Everything Is Alright Tab

version 2
version 2

Intro

Whole song

Interactive

12,563 views 3 this week
1 commentread comment
1 2 3 4 5
excellent!
x 6
add to favorites
launch autoscroll
font size
0
reset
how to read this tab
guitar tuner
Tab Pro tools
  • play this tab
  • loop segment
  • change instrument
  • show fretboard
  • metronome
Autoscroll
slow
fast
+/-
esc
set tempo
stop
Contributor
Difficulty
novice
Motion City Soundtrack
"Everything is Alright"

Email-harveyn590@yahoo.com
Tuning- Standard (EADGBE)

h= hammer on
p= pull off

If ANYHTING is wrong just tell me. I'll fix it.


Intro
 
(0:06-0:28) - Guitar 1
e|----------------------------------|
B|----------------------------------|
G|--8---------------5---------------|
D|--8-(x6)--6-------5-(x6)--6-------| (x4)
A|--6-------6-(x7)--3-------6-(x7)--|
E|----------4---------------4-------|

Moog (transcribed for guitar) (0:18-0:29)
e|--3----3-----3-3h4-6-3------3-----3---3-3h4p3------| (x2)
B|---4-4--4-------------4-------4-4--4---------6-6-4-|
G|---------------------------------------------------|
D|---------------------------------------------------|
A|---------------------------------------------------|
E|---------------------------------------------------|


Guitar 2 (0:18-0:29) 
e|----------------------------------3-------| (x2)              
B|------------------------------------6-6-4-|
B|------------------------------------------|
G|--8---------------5-----------------------|
D|--8-(x6)--6-------5-(x6)--6---------------|
A|--6-------6-(x7)--3-------6-(x3)----------|
E|----------4---------------4---------------|



Verse 

Guitar
 (0:29-0:42)
e|------------------------------------| 
B|------------------------------------|
G|--8------5--------------------------|hold for 8 counts each
D|--8------3-------3---------6--------|
A|--6------3-------3---------6--------|
E|-----------------1---------4--------|

(0:42-0:53)
e|--------------------------------------| Palm-muted sixteenth notes
B|--------------------------------------|
G|--8--------5--------------------------|
D|--8-(x16)--5-(x16)--3--------6--------|
A|--6--------3--------3-(x16)--6-(x16)--|
E|--------------------1--------4--------|




Chorus 

Guitar 1 (0:53-1:05)
e|----------------------------------|
B|----------------------------------|
G|--8---------------5---------------|
D|--8-(x6)--6-------5-(x6)--6-------| (x2)
A|--6-------6-(x7)--3-------6-(x7)--|
E|----------4---------------4-------|

Moog (transcribed for guitar) 
e|--3----3-----3-3h4-6-3------3-----3---3-3h4p3------| (x2)
B|---4-4--4-------------4-------4-4---4--------6-6-4-|
G|---------------------------------------------------|
D|---------------------------------------------------|
A|---------------------------------------------------|
E|---------------------------------------------------|

Guitar 2  
e|----------------------------------3-------| (x2)              
B|------------------------------------6-6-4-|
B|------------------------------------------|
G|--8---------------5-----------------------|
D|--8-(x6)--6-------5-(x6)--6---------------|
A|--6-------6-(x7)--3-------6-(x3)----------|
E|----------4---------------4---------------|



No Guitar (1:05-1:17)


Verse 

Guitar (1:17-1:29)
e|---------------------------------------------------| Palm-muted sixteenth notes
B|---------------------------------------------------|
G|--8--------5--------5------------------------------|
D|--8-(x16)--5-(x11)--5-(x3 open)--3--------6--------|
A|--6--------3--------3------------3-(x16)--6-(x16)--|
E|---------------------------------1--------4--------|




Chorus

Chorus Guitar 1 (1:17-1:41)
e|----------------------------------|
B|----------------------------------|
G|--8---------------5---------------|
D|--8-(x6)--6-------5-(x6)--6-------| (x2)
A|--6-------6-(x7)--3-------6-(x7)--|
E|----------4---------------4-------|

Moog (transcribed for guitar) 
e|--3----3-----3-3h4-6-3------3-----3---3-3h4p3------| (x2)
B|---4-4--4-------------4-------4-4---4--------6-6-4-|
G|---------------------------------------------------|
D|---------------------------------------------------|
A|---------------------------------------------------|
E|---------------------------------------------------|

Guitar 2  
e|----------------------------------3-------| (x2)              
B|------------------------------------6-6-4-|
B|------------------------------------------|
G|--8---------------5-----------------------|
D|--8-(x6)--6-------5-(x6)--6---------------|
A|--6-------6-(x7)--3-------6-(x3)----------|
E|----------4---------------4---------------|


Bridge
(1:41-2:05) - Guitar 2
e|------------- (x8)
B|-------------|
G|--7--5--8----|
D|--7--5--8----|
A|--5--3--6----|
E|-------------|


(1:55) (1:59) (2:01)
Guitar 1
e|---------8---11--|
B|--9--11----------|
G|-----------------|
D|-----------------|
A|-----------------|
E|-----------------|

(2:05-2:12) -  Guitar 1
e|----------------------------| 
B|----------------------------| hold for 8 counts
G|----------5-----------------|
D|----------5----3------------|
A|----------3----3------------|
E|---------------1------------|

(2:12-2:16) -  Guitar 1 and 2
e|------------------------------| 
B|------------------------------|
G|------------------------------|
D|--------6---------6-----------|
A|--------6-(x16)---6-----------|
E|--------4---------4-----------|

(2:17-2:41) - Guitar 1 and 2 
e|--------------------------------------| (x2 open)
B|--------------------------------------|
G|--8--------5--------------------------|
D|--8-(x16)--5-(x16)--3--------6--------|
A|--6--------3--------3-(x16)--6-(x16)--|
E|--------------------1--------4--------|

Chorus

Chorus Guitar 1 (2:41-3:04)
e|----------------------------------|
B|----------------------------------|
G|--8---------------5---------------|
D|--8-(x6)--6-------5-(x6)--6-------| (x2)
A|--6-------6-(x7)--3-------6-(x7)--|
E|----------4---------------4-------|

Moog (transcribed for guitar) 
e|--3----3-----3-3h4-6-3------3-----3---3-3h4p3------| (x2)
B|---4-4--4-------------4-------4-4---4--------6-6-4-|
G|---------------------------------------------------|
D|---------------------------------------------------|
A|---------------------------------------------------|
E|---------------------------------------------------|

Guitar 2  
e|----------------------------------3-------| (x2)              
B|------------------------------------6-6-4-|
B|------------------------------------------|
G|--8---------------5-----------------------|
D|--8-(x6)--6-------5-(x6)--6---------------|
A|--6-------6-(x7)--3-------6-(x3)----------|
E|----------4---------------4---------------|


Ending (3:04-3:25) - Guitar 1 and 2
e|------------------| (x4)
B|------------------|
G|--7--5--8---------|
D|--7--5--8---------|
A|--5--3--6---------|
E|------------------|


This song is great. I love MCS. If ANYHTING is wrote just tell me. I'll fix it.
comments
print report bad tab
1 comment total.
0 reply
xSpiK3Spi3Ge1x wrote on November 17 2005, 07:48 am

This is almost the same as the original, minus the ending chords and the moog part (and they are minor differences at that). Wouldn't it have just been easier to e-mail the creator of the original tab?

I want to post or [tab]
guest
You may want to rate the tab now too:
select rating
Please do not post tabs as comments. Select "correction" instead!