Oops, an error
Loading. Please wait.

Everything Is Alright Tab

version 4
version 4

Whole song

Interactive

41,047 views 18 this week
11 commentsread comments
1 2 3 4 5
excellent!
x 27
add to favorites
launch autoscroll
font size
0
reset
how to read this tab
guitar tuner
Autoscroll
slow
fast
+/-
esc
set tempo
stop
Help us to improve Ultimate-Guitar.com Take our survey!
×
Author
Song: Evertything is Alright
Band: Motion City Soundtrack
    *Tune Down 1/2 Step*

   Intro (0:06-0:17)
eb|----------------------------------|
Bb|----------------------------------|x2
Gb|-99999-9-66666666-----------------|
Db|-99999-9-6666666644444-4-77777777-|
Ab|-77777-7-4444444444444-4-77777777-|
Eb|-----------------22222-2-55555555-|

   Chorus (0:18-0:29)        Guitar 1                                Guitar 2
eb|----------------------------------|    |-4-4---4-457-4---4-4---4-452-4----|
Bb|----------------------------------|x2  |--5-55---------5--5-55---------5--|x2
Gb|-----------------66666-6----------|    |----------------------------------|
Db|-22222-2-7777777766666-6-77777777-|    |----------------------------------|
Ab|-22222-2-7777777744444-4-77777777-|    |----------------------------------|
Eb|-00000-0-55555555--------55555555-|    |----------------------------------|

   Verse (0:30-0:41)
eb|------------------------------------------------------------------|
Bb|------------------------------------------------------------------|
Gb|-----------------6~------------------------------2~---------------|
Db|-2~--------------6~--------------4~--------------2~---------------|
Ab|-2~--------------4~--------------4~--------------0~---------------|
Eb|-0~------------------------------2~-------------------------------|

   PreChorus (0:42-0:53)
eb|------------------------------------------------------------------|
Bb|------------------------------------------------------------------|
Gb|--------------------------------6-------------------------2222222-|
Db|-----------------6666666666666666----------------2222222222222222-|
Ab|-2222222222222222444444444444444444444444444444440000000000000000-|
Eb|-0000000000000000----------------2222222222222222-----------------|
    ******************************* *************************

   Chorus (0:54-1:05)        Guitar 1                                Guitar 2
eb|----------------------------------|    |-4-4---4-457-4---4-4---4-452-4----|
Bb|----------------------------------|x2  |--5-55---------5--5-55---------5--|x2
Gb|-----------------66666-6----------|    |----------------------------------|
Db|-22222-2-7777777766666-6-77777777-|    |----------------------------------|
Ab|-22222-2-7777777744444-4-77777777-|    |----------------------------------|
Eb|-00000-0-55555555--------55555555-|    |----------------------------------|

   Verse (1:06-1:17) No Guitar

   PreChorus (1:18-1:28)
eb|------------------------------------------------------------------|
Bb|------------------------------------------------------------------|
Gb|-------------------------6--6-6---------------------------2222222-|
Db|-----------------666666666--6-6------------------2222222222222222-|
Ab|-2222222222222222444444444--4-4--44444444444444440000000000000000-|
Eb|-0000000000000000----------------2222222222222222-----------------|
    ************************        *************************

   Chorus (1:29-1:40)        Guitar 1                                Guitar 2
eb|----------------------------------|    |-4-4---4-457-4---4-4---4-452-4----|
Bb|----------------------------------|x2  |--5-55---------5--5-55---------5--|x2
Gb|-----------------66666-6----------|    |----------------------------------|
Db|-22222-2-7777777766666-6-77777777-|    |----------------------------------|
Ab|-22222-2-7777777744444-4-77777777-|    |----------------------------------|
Eb|-00000-0-55555555--------55555555-|    |----------------------------------|

   Bridge (1:41-1:52)
eb|----------------------------------|
Bb|----------------------------------|x2
Gb|-8--6------------8--6-------------|
Db|-8--6--9---------8--6--9----------|
Ab|-6--4--7---------6--4--7----------|
Eb|-------0---------------0----------|

   Bridge Cont. (1:53-2:05)  Guitar 1                Guitar 2
eb|----------------------------------|    |------------------|
Bb|----------------------------------|x2  |---------------45-|x3
Gb|-8--6------------8--6-------------|    |-------------46---|
Db|-8--6--9---------8--6--9----------|    |------------------|
Ab|-6--4--7---------6--4--7----------|    |------------------|
Eb|-------0---------------0----------|    |------------------|

   Bridge Cont. (2:06-2:16)
eb|------------------------------------------------------------------|
Bb|------------------------------------------------------------------|
Gb|-6-----------------------------------------------2----------------|
Db|-6~--------------4~--------------22222222222222222----------------|
Ab|-4~--------------4~--------------00000000000000000----------------|
Eb|-----------------2~-----------------------------------------------|
                                    ****************
   Prelude (2:17-2:40)
eb|------------------------------------------------------------------|
Bb|------------------------------------------------------------------|x2
Gb|-----------------6666666666666666----------------2222222222222222-|
Db|-2222222222222222666666666666666644444444444444442222222222222222-|
Ab|-2222222222222222444444444444444444444444444444440000000000000000-|
Eb|-0000000000000000----------------2222222222222222-----------------|

   Chorus (2:41-3:03)        Guitar 1                                Guitar 2
eb|----------------------------------|    |-4-4---4-457-4---4-4---4-452-4----|
Bb|----------------------------------|x4  |--5-55---------5--5-55---------5--|x4
Gb|-----------------66666-6----------|    |----------------------------------|
Db|-22222-2-7777777766666-6-77777777-|    |----------------------------------|
Ab|-22222-2-7777777744444-4-77777777-|    |----------------------------------|
Eb|-00000-0-55555555--------55555555-|    |----------------------------------|

   Bridge (3:04-3:28)
eb|------------------------------------------------------------------|
Bb|------------------------------------------------------------------|End
Gb|-8--6------------8--6------------8--6------------8--6-------------|
Db|-8--6--9---------8--6--9---------8--6--9---------8--6--9~---------|
Ab|-6--4--7---------6--4--7---------6--4--7---------6--4--7~---------|
Eb|-------0---------------0---------------0---------------0~---------|
Suggest correction
comments
print report bad tab
11 comments total. Showing first comments.
+2 reply
fret13 1,031 wrote on August 11 2006, 08:07 am

MCS dont play it a half step down but if you take time to re-tune your guitar to halfstep down then its 100%

0 reply
nfgrox312 155 wrote on August 15 2006, 06:31 pm

MCS actually does play it half step down. best mcs tab i've ever seen, good job.

0 reply
fret13 1,031 wrote on December 16 2006, 06:17 pm

yeah i take back what i said they do play in half step i just hadnt seen them live before that.

guest
You may want to rate the tab now too:
select rating
Please do not post tabs as comments. Select "correction" instead!