Oops, an error
Loading. Please wait.

Feel Like Rain Bass Tab

version 1
version 1

Whole song

Interactive

1,766 views 1 this week
no commentswrite comment
1 2 3 4 5
please rate
add to favorites
launch autoscroll
font size
0
reset
guitar tuner
Tab Pro tools
  • play this tab
  • loop segment
  • change instrument
  • show fretboard
  • metronome
×
Best way to learn
"Feel Like Rain"
Autoscroll
slow
fast
+/-
esc
set tempo
stop
Contributor
Difficulty
intermediate
Artist: Motion City Soundtrack
Bassist: Matthew Taylor
Song: Feel Like Rain
Album: Commit This To Memory
Tabbed By: Lewis [lewis_mason21@hotmail.com]

Relatively simple song, standard tuned, as my bass was in standard when I tabbed it.  Eb 
most likely the right tuning, if you want to be precise on it.

[Tuning: Standard - E,A,D,G]

Key:
~: Let Note Ring

Intro:
("And we feel like rain" ... "Of this empty frame")
G|--------REST--------|
D|--------REST--------|
A|--------REST--------|
E|--------REST--------|

Verse One:
("Though we feel let down" ... "Ready to commit this crime")
G|------------------------------------------------------------------------|
D|------------------------------------------------------------------------|
A|-77777777----------77777777----------77777777---------------------------|
E|----------44444444----------44444444----------44444444-7777777777777777-|

G|------------------------------------------------------------------------|
D|------------------------------------------------------------------------|
A|-77777777----------77777777----------77777777---------------------------|
E|----------44444444----------44444444----------44444444-777-777-777-777--|

Chorus: [x3]
("We love that game" ... "For far too long")
G|-------------------|
D|-------------------|
A|------22-----------|
E|-00-------22--2222-|

Post-Chorus:
G|-------|
D|-------|
A|-7~-6~-|
E|-------| [x1]

G|-------------------|
D|-------------------|
A|-77777777-66664444-|
E|-------------------| [x3]

G|------------------|
D|------------------|
A|-7777777777777777-|
E|------------------| [x1]

Verse Two, Part One:
("From the falsest smile" ... "That we're still alive")
G|-------------------|
D|-------------------|
A|-77777777-66664444-|
E|-------------------| [x3]

G|------------------|
D|------------------|
A|-7777777777777777-|
E|------------------| [x1]

Verse Two, Part Two:
("With our hopes on hold" ... "From boredom toward apathy")
G|------------------------------------------------------------------------|
D|------------------------------------------------------------------------|
A|-77777777----------77777777----------77777777---------------------------|
E|----------44444444----------44444444----------44444444-7777777777777777-|

G|------------------------------------------------------------------------|
D|------------------------------------------------------------------------|
A|-77777777----------77777777----------77777777---------------------------|
E|----------44444444----------44444444----------44444444-777-777-777-777--|

Chorus:
("We love that game" ... "For far too long")
G|-------------------|
D|-------------------|
A|------22-----------|
E|-00-------22--2222-| [x7]

Post-Chorus:
G|-------|
D|-------|
A|-7~-6~-|
E|-------| [x1]

Bass Interlude:
G|------------------------------------------------------------------------|
D|------------------------------------------------------------------------|
A|-77777777----------77777777----------77777777---------------------------|
E|----------44444444----------44444444----------44444444-7777777777777777-|

Break: [x2]
("Say something, finally we're alone" ... "How about a phone call now")
G|-------------------------------------------------------------------------|
D|-------------------------------------------------------------------------|
A|-77777777----------77777777----------77777777----------77777777----------|
E|----------44444444----------44444444----------44444444----------44444444-|

Chorus: [The first three bars are guitar only]
("We love that game" ... "For far too long")
G|-------------------|
D|-------------------|
A|------22-----------|
E|-00-------22--2222-| [x7]

Outro:
G|--------REST--------|
D|--------REST--------|
A|--------REST--------|
E|--------REST--------|
comments
We did not receive enough feedback on this tab! Please rate:
print report bad tab
1 2 3 4 5
I want to post or [tab]
guest
You may want to rate the tab now too:
select rating
Please do not post tabs as comments. Select "correction" instead!