Oops, an error
Loading. Please wait.

Fell In Love Without You Tab

version 1
version 1

Acoustic

Whole song

Interactive

1,986 views 3 this week
no commentswrite comment
1 2 3 4 5
please rate
add to favorites
launch autoscroll
font size
0
reset
how to read this tab
guitar tuner
Autoscroll
slow
fast
+/-
esc
set tempo
stop
Help us to improve Ultimate-Guitar.com Take our survey!
×
Author
Difficulty
Great song, I thought I'd do a tab version since all the others are chords. This song is 
in standard despite that the original was in flat.

Intro
e|-----------------|-----------------|-----------------|-------------------|
B|-1-1-1-1-1-1-1-1-|-1-1-1-1-1-1-1-1-|-1-1-1-1-1-1-1-1-|-1-1-0-0-1-1-1-----|
G|-0-0-0-0-0-0-0-0-|-0-0-0-0-0-0-0-0-|-0-0-0-0-0-0-0-0-|-0-0-0-0-0-0-0-----| x2
D|-2-2-2-2-2-2-2-0-|-0-0-0-3-3-3-3-3-|-2-2-2-2-2-2-2-0-|-0-0-0-0-0-0-0-----|
A|-3-3-3-3-3-3-3-3-|-3-3-3-3-3-3-3-3-|-3-3-3-3-3-3-3-3-|-3-3-3-3-3-3-3-----|
E|-------0-0-0-0-3-|-3-3-3-1-1-1-1-1-|-------0-0-0-0-3-|-3-3-3-3-3-3-3-1---|
                           ------------------------------------------------|
                           *T (thumb)                                  *T

Verse

Repeat 1 3/4 times for the verse. The last measure of the verse do this.

e|-----------------|
B|-1-1-0-0-X-X-X-X-|
G|-0-0-0-0-X-X-X-X-|
D|-0-0-0-0-X-X-X-X-|
A|-3-3-X-X---------|
E|-3-3-3-3---------|

Chorus

e|-----------------|------------------|-----------------|-----------------|
B|-----------------|---------------11-|-1-1-1-0-1-1-1-0-|-1-1-1-1-1-1-1-1-|
G|-2-2-2-2-2-2-2-2-|-2-2-2-2-2-2-2-00-|-0-0-0-0-0-0-0-0-|-2-2-2-2-2-2-2-2-|
D|-3-3-3-3-3-3-3-3-|-3-3-3-3-3-3-3-22-|-2-2-2-2-2-2-2-2-|-2-2-2-2-2-2-2-2-|
A|-3-3-3-3-3-3-3-3-|-3-3-3-3-3-3-3-33-|-3-3-3-3-3-3-3-3-|-0-0-0-0-0-0-0-0-|
E|-1-1-1-1-1-1-1-1-|-1-1-1-1-1-1-1----|-----------------|-----------------|

e|-----------------|-----------------|-----------------|-----------------|
B|-3-3-3-3-3-3-3-3-|-----------------|-----------------|-----------------|
G|-3-3-3-3-3-3-3-3-|-2-2-2-2-2-2-2-2-|-2-2-2-2-2-2-2-2-|-2-2-2-2-2-2-2-2-|
D|-3-3-3-3-3-3-3-3-|-3-3-3-3-3-3-3-3-|-3-3-3-3-3-3-3-3-|-3-3-3-3-3-3-3-3-|
A|-1-1-1-1-1-1-1-1-|-3-3-3-3-3-3-3-3-|-3-3-3-3-3-3-3-3-|-3-3-3-3-3-3-3-3-|
E|-----------------|-1-1-1-1-1-1-1-1-|-1-1-1-1-1-1-1-1-|-1-1-1-1-1-1-1-1-|

e|-----------------|------------------|----------------|
B|-1-1-1-1-1-1-1-1-|-3-3-3-3-3-3-3----|----------------|
G|-2-2-2-2-2-2-2-2-|-3-3-3-3-3-3-3-22-|-2--------------|
D|-2-2-2-2-2-2-2-2-|-3-3-3-3-3-3-3-33-|-3--------------|
A|-0-0-0-0-0-0-0-0-|-1-1-1-1-1-1-1-33-|-3--------------|
E|-----------------|---------------11-|-1--------------|

Repeat the intro, verse, and chorus exactly as written. It just does a double repeat.

Interlude

play the Intro riff twice

e|-----------------|-----------------|-----------------|-------------------|
B|-1-1-1-1-1-1-1-1-|-1-1-1-1-1-1-1-1-|-1-1-1-1-1-1-1-1-|-1-1-0-0-1-1-1-----|
G|-0-0-0-0-0-0-0-0-|-0-0-0-0-0-0-0-0-|-0-0-0-0-0-0-0-0-|-0-0-0-0-0-0-0-----| x2
D|-2-2-2-2-2-2-2-0-|-0-0-0-3-3-3-3-3-|-2-2-2-2-2-2-2-0-|-0-0-0-0-0-0-0-----|
A|-3-3-3-3-3-3-3-3-|-3-3-3-3-3-3-3-3-|-3-3-3-3-3-3-3-3-|-3-3-3-3-3-3-3-----|
E|-------0-0-0-0-3-|-3-3-3-1-1-1-1-1-|-------0-0-0-0-3-|-3-3-3-3-3-3-3-1---|
                           ------------------------------------------------|
                           *T (thumb)                                  *T

Play the verse again, when the whole band sings higher

Last Chorus

e|-----------------|------------------|-----------------|-----------------|
B|-----------------|---------------11-|-1-1-1-0-1-1-1-0-|-1-1-1-1-1-1-1-1-|
G|-2-2-2-2-2-2-2-2-|-2-2-2-2-2-2-2-00-|-0-0-0-0-0-0-0-0-|-2-2-2-2-2-2-2-2-|
D|-3-3-3-3-3-3-3-3-|-3-3-3-3-3-3-3-22-|-2-2-2-2-2-2-2-2-|-2-2-2-2-2-2-2-2-|
A|-3-3-3-3-3-3-3-3-|-3-3-3-3-3-3-3-33-|-3-3-3-3-3-3-3-3-|-0-0-0-0-0-0-0-0-|
E|-1-1-1-1-1-1-1-1-|-1-1-1-1-1-1-1----|-----------------|-----------------|

e|-----------------|-----------------|-----------------|-----------------|
B|-3-3-3-3-3-3-3-3-|-----------------|-----------------|-----------------|
G|-3-3-3-3-3-3-3-3-|-2-2-2-2-2-2-2-2-|-2-2-2-2-2-2-2-2-|-2-2-2-2-2-2-2-2-|
D|-3-3-3-3-3-3-3-3-|-3-3-3-3-3-3-3-3-|-3-3-3-3-3-3-3-3-|-3-3-3-3-3-3-3-3-|
A|-1-1-1-1-1-1-1-1-|-3-3-3-3-3-3-3-3-|-3-3-3-3-3-3-3-3-|-3-3-3-3-3-3-3-3-|
E|-----------------|-1-1-1-1-1-1-1-1-|-1-1-1-1-1-1-1-1-|-1-1-1-1-1-1-1-1-|

e|------------------|------------------|------------------|------------------|
B|-1-1-1-1-1-1-1-11-|-3-3-3-3-3-3-3-33-|-1-1-1-1-1-1-1-11-|-1-1-1-1-1-1-1-11-|
G|-2-2-2-2-2-2-2-22-|-3-3-3-3-3-3-3-33-|-0-0-0-0-0-0-0-00-|-0-0-0-0-0-0-0-00-|
D|-2-2-2-2-2-2-2-22-|-3-3-3-3-3-3-3-33-|-2-2-2-2-2-2-2-22-|-2-2-2-2-2-2-2-22-|
A|-0-0-0-0-0-0-0-00-|-1-1-1-1-1-1-1-11-|-3-3-3-3-3-3-3-33-|-3-3-3-3-3-3-3-33-|
E|------------------|------------------|------------------|------------------|

End on

e|-----------|
B|-1---------|
G|-2---------|
D|-2---------|
A|-0---------|
E|-----------|

The last two chords, Bb and F, are played by a piano.

Enjoy
Suggest correction
Give kudos to tab author, rate the tab!
1 2 3 4 5
comments
print report bad tab
guest
You may want to rate the tab now too:
select rating
Please do not post tabs as comments. Select "correction" instead!