Oops, an error
Loading. Please wait.

Fell In Love Without You Bass Tab

version 1
version 1

Whole song

Interactive

2,688 views 3 this week
2 commentsread comments
1 2 3 4 5
excellent!
x 3
add to favorites
launch autoscroll
font size
0
reset
guitar tuner
Tab Pro tools
  • play this tab
  • loop segment
  • change instrument
  • show fretboard
  • metronome
×
Best way to learn
"Fell In Love Without You"
Autoscroll
slow
fast
+/-
esc
set tempo
stop
Contributor
Difficulty
novice
Fell In Love Without You
Motion City Soundtrack
Bass [Standard Tuning]

So this song really has has two main figures:  The intro/verse, and the chorus.
The solo section is a combination of two choruses and one intro.  Also there's a key 
after the solo, which is the intro figure raised one tone.
Also, to save getting pointless questions,the letters above the notes are DURATIONS, so 
the legend down the bottom for that. When there is an L in the TAB itself, it means the 
note is held over.


INTRO/VERSE

     E  E  E  Q    E  E  E     E  E  E  Q    E  E  E
G||-------------------------|-------------------------|
D||-----------1----1--1-----|-------------------------|
A||--2--2--2----------------|-------------------------|
E||----------------------2--|--L--2--2--0----0--0--0--|


  E  E  E  Q    E  E  E     E  E  E  E  E  E  E  E
-------------------------|--------------------------|
-----------1----1--1-----|--------------------------|
--2--2--2----------------|--------------------------|
----------------------2--|--L--2--2--2--2--2--2--2--|


CHORUS

     E  E  E  E  E  E  E  E     E  E  E  E  E  E  E  E
G||--------------------------|--------------------------|
D||--------------------------|--------------------------|
A||--------------------------|--2--2--2--2--2--2--2--2--|
E||--0--0--0--0--0--0--0--0--|--------------------------|


  E  E  E  E  E  E  E  E     E  E  E  E  E  E  E  E
--------------------------|--------------------------|
--------------------------|--------------------------|
--2--2--2--2--2--2--2--2--|--------------------------|
--------------------------|--4--4--4--4--4--4--4--4--|


  E  E  E  E  E  E  E  E     E  E  E  E  E  E  E  E
--------------------------|--------------------------|
--------------------------|--------------------------|
--0--0--0--0--0--0--0--0--|--2--2--2--2--2--2--2--2--|
--------------------------|--------------------------|


  E  E  E  E  E  E  E  E
--------------------------|
--------------------------|
--2--2--2--2--2--2--2--2--|
--------------------------|


KEYCHANGE

     E  E  E  Q    E  E  E     E  E  E  Q    E  E  E
G||-------------------------|-------------------------|
D||-----------3----3--3-----|-------------------------|
A||--4--4--4----------------|-------------------------|
E||----------------------4--|--L--4--4--2----2--2--2--|


  E  E  E  Q    E  E  E     E  E  E  E  E  E  E  E
-------------------------|--------------------------|
-----------3----3--3-----|--------------------------|
--4--4--4----------------|--------------------------|
----------------------4--|--L--4--4--4--4--4--4--4--|


ENDING

     W                   W
G||-------------------|-------------------|
D||-------------------|-------------------|
A||-------------------|--0----------------|
E||--4----------------|-------------------|


  W                   W
-------------------|-------------------|
-------------------|-------------------|
-------------------|-------------------|
--0----------------|--L----------------|


Duration Legend
---------------
W - whole
H - half
Q - quarter
E - 8th
S - 16th
T - 32nd
X - 64th


Very simple song, doesn't take a genius to be able to put it together ;)
comments
We did not receive enough feedback on this tab! Please rate:
print report bad tab
1 2 3 4 5
2 comments total.
+1 reply
JazzBassist wrote on October 7 2007, 08:39 am

pfft shit, nah i like it......might confuse some shitty bass players who are just starting out tho.........no offence

0 reply
cuppycake16 wrote on April 19 2011, 07:32 am

oh yes!i just started playing..and well..its hard..
thanks for the tabs though!!^.^

I want to post or [tab]
guest
You may want to rate the tab now too:
select rating
Please do not post tabs as comments. Select "correction" instead!