Oops, an error
Loading. Please wait.

Fell In Love Without You Tab

version 2
version 2

Whole song

Interactive

2,455 views 1 this week
no commentswrite comment
1 2 3 4 5
please rate
add to favorites
launch autoscroll
font size
0
reset
how to read this tab
guitar tuner
Autoscroll
slow
fast
+/-
esc
set tempo
stop
Help us to improve Ultimate-Guitar.com Take our survey!
×
Difficulty
intermediate
Intro / Main Riff
(you don't have to play the 4th string on the intro, it just sounds better)

e|--------------------------------------------------|
B|--------------------------------------------------|
G|-444--888--333--444--------444--888---------------|
D|-444--888--444--222--------444--888--44444444-----|
A|-222--666--444--222--------222--666--44444444-----|
E|-----------222--000------------------22222222-----|

Chorus

e|-----------------------------------------------------|
B|-----------------------------------------------------|
G|-------------4444444444------------------------------|
D|-2222222222--4444444444--666666--777777--77777777----|
A|-2222222222--2222222222--666666--777777--77777777----|
E|-0000000000--------------444444--555555--44444444----|

2nd time through chorus

e|-----------------------------------------------------|
B|-----------------------------------------------------|
G|-------------4444444444------------------------------|
D|-2222222222--4444444444--666666--777777--2-hold---2--|
A|-2222222222--2222222222--666666--777777--2-hold---2--|
E|-0000000000--------------444444--555555--0-hold---0--|

Solo

e|-------------------------------------------------------------------|
B|-------7------------------7------------7--5--4--2--5--4------------|
G|-1--4------4--3--4-----4-----4--3--4---------------------1---------|
D|--------------------4----------------------------------------------|
A|-------------------------------------------------------------------|
E|-------------------------------------------------------------------|


e|--------7-9-7--11-12-11---------7-9-7--11-12-11--11-12-11--7-9-7---|
B|-7-9-7-------------------7-9-7-------------------------------------|
G|-------------------------------------------------------------------|
D|-------------------------------------------------------------------|
A|-------------------------------------------------------------------|
E|-------------------------------------------------------------------|


e|----11------11--12-11------------11----11---------|
B|-11-11--11--11---------12-12-12-----12------------|
G|--------------------------------------------------|
D|--------------------------------------------------|
A|--------------------------------------------------|
E|--------------------------------------------------|



e|-----------11-11-9-11-9-7-7-7-7-14-------14-------11--------|
B|-12-12-12--------------------------12-12---12-12----12-12-14|
G|------------------------------------------------------------|
D|------------------------------------------------------------|
A|------------------------------------------------------------|
E|------------------------------------------------------------|

Ending Chorus

e|------------------------------------------------------------|
B|------------------------------------------------------------|
G|-666--101010------------------666--101010-------------------|
D|-666--101010--666--444--------666--101010--66666666---------|
A|-444---8-8-8--666--444--------444---8-8-8--44444444---------|
E|--------------444--222---------------------44444444---------|

e|-----------------------------------------------------|
B|-----------------------------------------------------|
G|-------------6666666666------------------------------|
D|-4444444444--6666666666--888888--999999--99999999----|
A|-4444444444--4444444444--888888--999999--99999999----|
E|-2222222222--------------666666--777777--66666666----|


e|-----------------------------------------------------|
B|-----------------------------------------------------|
G|-------------4444444444------------------------------|
D|-2222222222--4444444444--666666--777777--22222222----|
A|-2222222222--2222222222--666666--777777--22222222----|
E|-0000000000--------------444444--555555--00000000----|


End

e|--------------------------------------------------|
B|--------------------------------------------------|
G|--------------------------------------------------|
D|-6--7--2------------------------------------------|
A|-6--7--2------------------------------------------|
E|-4--5--0------------------------------------------|
Suggest correction
What's this?
You can suggest a correction to this tab. Community and Mods will review your correction and vote to approve or reject it.
comments
We did not receive enough feedback on this tab! Please rate:
print report bad tab
1 2 3 4 5
guest
You may want to rate the tab now too:
select rating
Please do not post tabs as comments. Select "correction" instead!