Oops, an error
Loading. Please wait.

Happy Anniversary Chords

4,352 views 6 this week
2 commentsread comments
1 2 3 4 5
x 4
add to favorites
launch autoscroll
font size
0
reset
transpose
0
reset
display chords
guitar tuner
Autoscroll
slow
fast
+/-
esc
set tempo
stop
Help us to improve Ultimate-Guitar.com Take our survey!
×
Author
Difficulty
Tuning
novice
E A D G B E
Beautiful Song from one of my favourite bands.
my first published tab so forgive me if i've made any mistakes.

Bbm                   F#Maj
 I can feel it in my bones tonight
Bbm                      F#Maj
 Drain me slowly of the will to fight
Bbm                     F#Maj
 Glowing yellow in the bedroom light
Bbm                   F#Maj
 I can feel it in my bones tonight

Bbm F#Maj x2 Riff*

  Bbm                                  F#Maj             
e|----------------13(x4)--18(x4)--|---------------14(tremolo)|
B|-------- 14(x4)-----------------|--------14(x4)------------|
G|--13(x4)------------------------|-13(x4)-------------------|
D|--------------------------------|--------------------------|
A|--------------------------------|--------------------------|
E|--------------------------------|--------------------------|

Bbm                         F#Maj
 There is a terror in your eyes tonight
Bbm                       F#Maj
 Something awful has you wrapped in white
Bbm                        F#Maj
 Take me in your arms and hold me tight
        D#m              F#Maj      C#Maj
Cause I won't be here for long, my dear
   D#m        F#Maj
to Settle our accounts
          C#Maj
Happy anniversary
D#m            F#Maj       C#Maj
Show me how to calm your fears
D#m            F#Maj
I'll do what I can
          Bbm
Happy anniversary

Bbm F#Maj (same riff as earlier)

Bbm                   F#Maj
 I can feel it in my bones tonight
Bbm                     F#Maj
 Swallowing whatever's in its sight
Bbm                          F#Maj
 Struggling to breathe with all my might


        D#m              F#Maj      C#Maj
Cause I won't be here to dry your tears
D#m              F#Maj  
Send the kids my love
          C#Maj
Happy anniversary
D#m               F#Maj       C#Maj   D#m        F#Maj
Promise me you'll laugh, my dear, after I am gone
          Bbm      F#Maj
Happy anniversary
          Bbm      F#Maj
Happy anniversary

Solo (there is other stuff happening but this is main melody)

                 Bbm                  F#Maj             
e|--9--8----------------|-------------------------|
B|-------9--9s11--------|--------9----------------|
G|----------------------|-8--10-----10------------|
D|----------------------|---------------11--------|
A|----------------------|-------------------------|
E|----------------------|-------------------------|


        D#m             F#Maj    C#Maj*
Cause I won't be waking up,     my dear
D#m              F#Maj
Time has run its course
          C#Maj
Happy anniversary
D#m              F#Maj     C#Maj
Now I'll say goodbye, my dear
D#m              F#Maj
This will be our last
          C#Maj
Happy anniversary

D#m F#Maj (repeat F#Maj) 
Bbm                            F#Maj
I can feel it in my bones tonight

*riff begins

  C#Maj                  D#m             F#Maj    
e|-----------------------|---------------|-----4-------4------4------4---------|
B|-------9----------9----|-----9-----9---|---7-- 7---7--7---7--7- -7--7--------|
G|----10---10----10---10-|----8-8---8-8--|-6-------6-------6------6------------|
D|-11---------11---------|-11-----11-----|-------------------------------------|
A|-----------------------|---------------|-------------------------------------|
E|-----------------------|---------------|-------------------------------------|
Suggest correction
comments
print report bad tab
2 comments total.
0 reply
FaMOuS_SpEaKeR 10 Jul 29, 2012 07:16 PM

Hey uhmm... for the bb and the fm whats the strum pattern, or do i just play each one once?

0 reply
AJSpeed07 32 Aug 02, 2012 02:24 PM

Hey FaMOuS_SpEaKeR the for the first verse just strum them once after that the bb and fm are palm muted and played 16 times each i think

guest
You may want to rate the tab now too:
select rating
Wanna post a correction for this tab? Suggest correction