Oops, an error
Loading. Please wait.

Her Words Destroyed My Planet Bass Tab

version 1
version 1

Whole song

Interactive

1,790 views 1 this week
1 commentread comment
1 2 3 4 5
excellent!
x 3
add to favorites
launch autoscroll
font size
0
reset
guitar tuner
Tab Pro tools
  • play this tab
  • loop segment
  • change instrument
  • show fretboard
  • metronome
×
Best way to learn
"Her Words Destroyed My Planet"
Autoscroll
slow
fast
+/-
esc
set tempo
stop
Contributor
Difficulty
novice
Song begins with a guitar/vocal intro, bass comes in around 21sec.



G----------------------------------------------------------------------|
D----------------------------------------------------------------------|
A-24------24------24------24------24------24------24------24-----------|
E---000000--000000--000000--000000--000000--000000--000000-------------|

G----------------------------------------------------------------------|
D----------------------------------------------------------------------|
A------------------------------24--------------------------------------|
E-00000000000000224444444444444--00000000000000224444444444444444------|

G----------------------------------------------------------------------|
D----------------------------------------------------------------------|
A-000000000000000022222222222222--------00000000--------00000000-------|
E-------------------------------00002222--------00002222---------------|

G----------------------------------------------------------------------|
D----------------------------------------------------------------------|
A---------00000000--------0000000--------0000000000000024--------------|
E-00002222--------00002222-------00002222------------------------------|

G----------------------------------------------------------------------|
D----------------------------------------------------------------------|
A-------24------24------24------24------------------------------24-----|
E-000000--000000--000000--000000--000000000000002244444444444444-------|

G----------------------------------------------------------------------|
D----------------------------------------------------------------------|
A---------------------------------000000000000000022222222222222-------|
E-00000000000000224444444444444444-------------------------------------|

G----------------------------------------------------------------------|
D----------------------------------------------------------------------|
A---------00000000--------00000000--------00000000--------00000000-----|
E-00002222--------00002222--------00002222--------00002222-------------|

G----------------------------------------------------------------------|
D----------------------------------2-----------------------------------|
A----------0000000000000000-2444444-00000002---------------------------|
E-00002222----------------------------------0000000022222222-----------|

G----------------------------------------------------------------------|
D--------2-------------------------------2-----------------------------|
A-2444444-00000002----------------2444444-00000002---------------------|
E-----------------0000000022222222----------------0000000022222222-----|

G----------------------------------------------------------------------|
D--------2-------------------------------------------------------------|
A-2444444-00000002--------------24-------------------------------------|
E-----------------00000000222222---------------------------------------|

-Break-

G----------------------------------------------------------------------|
D----------------------------------------------------------------------|
A-24------24------24------24------2400000000000000002222222222222222---|
E---000000--000000--000000--000000-------------------------------------|

Those are 14's
G----------------------------------------------------------------------|
D----------------------------------------------------------------------|
A-00000000000000002222222222/14-14-14-14-14-14-------------------------|
E----------------------------------------------------------------------|

G----------------------------------------------------------------------|
D----------------------------------------------------------------------|
A---------00000000--------00000000--------00000000--------00000000-----|
E-00002222--------00002222--------00002222--------00002222-------------|

G----------------------------------------------------------------------|
D----------------------------------------------------------------------|
A---------00000000--------00000000--------00000000--------00000000-----|
E-00002222--------00002222--------00002222--------00002222-------------|

G----------------------------------------------------------------------|
D----------------------------------------------------------------------|
A---------0000000000000024---------------------------------------------|
E-00002222-------------------------------------------------------------|

That's it. Easy.
comments
We did not receive enough feedback on this tab! Please rate:
print report bad tab
1 2 3 4 5
1 comment total.
0 reply
AvantNeoPunk wrote on June 15 2011, 01:51 pm

pretty good man but i feel like something's up with the bridge and all. Still very good tab.

I want to post or [tab]
guest
You may want to rate the tab now too:
select rating
Please do not post tabs as comments. Select "correction" instead!