Oops, an error
Loading. Please wait.

Her Words Destroyed My Planet Tab

version 1
version 1

Whole song

Interactive

22,310 views 15 this week
3 commentsread comments
1 2 3 4 5
excellent!
x 13
add to favorites
launch autoscroll
font size
0
reset
how to read this tab
guitar tuner
Tab Pro tools
  • play this tab
  • loop segment
  • change instrument
  • show fretboard
  • metronome
×
Best way to learn
"Her Words Destroyed My Planet"
Autoscroll
slow
fast
+/-
esc
set tempo
stop
Contributor
Difficulty
novice
-------------------------------------------------------------------------------
                             HER WORDS DESTROYED MY PLANET - Motion City Soundtrack
-------------------------------------------------------------------------------
Tabbed by: Stuart Drake
Email: stuart_drake4@hotmail.com

Tuning: Standard

INTRO PART A:

e|---------------------------------------------------------------------------|
B|---------------------------------------------------------------------------|
G|--4/6----------------------------------------------------------------------|
D|--4/6-2-2-2-2-2-2-2-2-2-2-2-2-2-2-2-2-2-4-6-6-6-6-6-6-6-6-6-6-6-6-6-6------|
A|--2/4-2-2-2-2-2-2-2-2-2-2-2-2-2-2-2-2-2-4-6-6-6-6-6-6-6-6-6-6-6-6-6-6------|
E|------0-0-0-0-0-0-0-0-0-0-0-0-0-0-0-0-0-2-4-4-4-4-4-4-4-4-4-4-4-4-4-4--x2--|
        x x x x x x x x x x x x x x x x x x x x x x x x x x x x x x x x

            Maybe you were right after all      Maybe I'm just bad news
            I've been drowning in memories      Call it residual blues

e|---------------------------------------------------------------------------|
B|---------------------------------------------------------------------------|
G|---------------------------------------------------------------------------|
D|--7-7-7-7-7-7-7-7-7-7-7-7-7-7-7-7-9-9-9-9-9-9-9-9-9-9-9-9-9-9-9-9----------|
A|--7-7-7-7-7-7-7-7-7-7-7-7-7-7-7-7-9-9-9-9-9-9-9-9-9-9-9-9-9-9-9-9----------|
E|--5-5-5-5-5-5-5-5-5-5-5-5-5-5-5-5-7-7-7-7-7-7-7-7-7-7-7-7-7-7-7-7----------|
    x x x x x x x x x x x x x x x x x x x x x x x x x x x x x x x x

        I fell asleep watching   "Veronica Mars" again...

INTRO PART B:

Rhythm guitar:

e|-------------------------------|
B|-------------------------------|
G|--------------4-6--------------|
D|--2-2-2-2-2-2-4-6--------------|
A|--2-2-2-2-2-2-2-4--------------|
E|--0-0-0-0-0-0-----x8-----------|

Lead Guitar/Synth:

e|---------------------------------------------------------------------------|
B|--5-5-5-5-5-4-2-0-5-5-5-5-5-7-4-4-5-5-5-5-5-4-2-0-2-2-2-0-2-0-4------------|
G|---------------------------------------------------------------------------|
D|---------------------------------------------------------------------------|
A|-----------------------------------------------------------------x2--------|
E|---------------------------------------------------------------------------|

VERSE 1:

e|---------------------------------------------------------------------------|
B|---------------------------------------------------------------------------|
G|------------------------------------------------------------------4/6------|
D|--2-2-2-2-2-2-2-2-2-2-2-2-2-2-2-2-2-4-6-6-6-6-6-6-6-6-6-6-6-6-6-6-4/6------|
A|--2-2-2-2-2-2-2-2-2-2-2-2-2-2-2-2-2-4-6-6-6-6-6-6-6-6-6-6-6-6-6-6-2/4------|
E|--0-0-0-0-0-0-0-0-0-0-0-0-0-0-0-0-0-2-4-4-4-4-4-4-4-4-4-4-4-4-4-4------x2--|
    x x x x x x x x x x x x x x x x x x x x x x x x x x x x x x x x

  I still fucked with that tourniquet  I tried to squeeze on your dreams
    Slung it on, it's a perfect fit      What do you suppose that means?

PRECHORUS:

e|---------------------------------------------------------------------------|
B|---------------------------------------------------------------------------|
G|---------------------------------------------------------------------------|
D|--7-7-7-7-7-7-7-7-7-7-7-7-7-7-7-7-9-9-9-9-9-9-9-9-9-9-9-9-9-9-9-9----------|
A|--7-7-7-7-7-7-7-7-7-7-7-7-7-7-7-7-9-9-9-9-9-9-9-9-9-9-9-9-9-9-9-9----------|
E|--5-5-5-5-5-5-5-5-5-5-5-5-5-5-5-5-7-7-7-7-7-7-7-7-7-7-7-7-7-7-7-7----------|

     My parents keep asking when you're planning on coming around...

CHORUS:

e|---------------------------------------------------------------------------|
B|---------------------------------------------------------------------------|
G|---------------------------------------------------------------------------|
D|--------2-2-2-2-4-4-4-4-7-7-7-7-7-7-7-7-----------7-7-7-7-7-7-7-7----------|
A|--------2-2-2-2-4-4-4-4-7-7-7-7-7-7-7-7-----------7-7-7-7-7-7-7-7----------|
E|--------0-0-0-0-2-2-2-2-5-5-5-5-5-5-5-5--x5-------5-5-5-5-5-5-5-5----------|

  If we'd only stayed  together                     Anything at all
  I might not have fallen apart
  But the words you said destroyed my planet
  and I stall before I start
   I stall before I start

INTRO PART B (AGAIN):

e|-------------------------------|
B|-------------------------------|
G|--------------4-6--------------|
D|--2-2-2-2-2-2-4-6--------------|
A|--2-2-2-2-2-2-2-4--------------|
E|--0-0-0-0-0-0-----x4-----------|

Lead Guitar/Synth:

e|---------------------------------------------------------------------------|
B|--5-5-5-5-5-4-2-0-5-5-5-5-5-7-4-4-5-5-5-5-5-4-2-0-2-2-2-0-2-0-4------------|
G|---------------------------------------------------------------------------|
D|---------------------------------------------------------------------------|
A|-----------------------------------------------------------------x2--------|
E|---------------------------------------------------------------------------|

VERSE 2:

Rhythm guitar:

e|---------------------------------------------------------------------------|
B|---------------------------------------------------------------------------|
G|------------------------------------------------------------------4/6------|
D|--2-2-2-2-2-2-2-2-2-2-2-2-2-2-2-2-2-4-6-6-6-6-6-6-6-6-6-6-6-6-6-6-4/6------|
A|--2-2-2-2-2-2-2-2-2-2-2-2-2-2-2-2-2-4-6-6-6-6-6-6-6-6-6-6-6-6-6-6-2/4------|
E|--0-0-0-0-0-0-0-0-0-0-0-0-0-0-0-0-0-2-4-4-4-4-4-4-4-4-4-4-4-4-4-4------x2--|
    x x x x x x x x x x x x x x x x x x x x x x x x x x x x x x x x

        Got a job at a common grounds    I finally shaved off that beard
  Sold my Xbox to Jimmy down the street  I even quit smoking weed

Lead guitar:

e|---------------------------------------------------------------------------|
B|---------------------------------------------------------------------------|
G|-----------------------4--6-4-3--------------------------------------------|
D|--2-4-2-4-6--6-4-2-1-------------------------------------------------------|
A|---------------------4-----------------------------------------------------|
E|-------------------------------------x2------------------------------------|

PRECHORUS:

e|---------------------------------------------------------------------------|
B|---------------------------------------------------------------------------|
G|---------------------------------------------------------------------------|
D|--7-7-7-7-7-7-7-7-7-7-7-7-7-7-7-7-9-9-9-9-9-9-9-9-9-9-9-9-9-9-9-9----------|
A|--7-7-7-7-7-7-7-7-7-7-7-7-7-7-7-7-9-9-9-9-9-9-9-9-9-9-9-9-9-9-9-9----------|
E|--5-5-5-5-5-5-5-5-5-5-5-5-5-5-5-5-7-7-7-7-7-7-7-7-7-7-7-7-7-7-7-7----------|

     I'm taking an online course, I'm learning to speak Japanese...

CHORUS:

e|---------------------------------------------------------------------------|
B|---------------------------------------------------------------------------|
G|---------------------------------------------------------------------------|
D|--------2-2-2-2-4-4-4-4-7-7-7-7-7-7-7-7-----------7-7-7-7-7-7-7-7----------|
A|--------2-2-2-2-4-4-4-4-7-7-7-7-7-7-7-7-----------7-7-7-7-7-7-7-7----------|
E|--------0-0-0-0-2-2-2-2-5-5-5-5-5-5-5-5--x5-------5-5-5-5-5-5-5-5----------|

  If we'd only stayed  together                     Anything at all
  I might not have fallen apart
  But the words you said destroyed my planet
  and I stall before I start
   I stall before I start

e|---------------------------------------------------------------------------|
B|---------------------------------------------------------------------------|
G|--4-6-6-6-6-6-6-6----------------------------------------------------------|
D|--4-6-6-6-6-6-6-6-7-7-7-7-7-7-7-7-2-2-2-2-2-2-2-2-4-4-4-4-4-4-4-4----------|
A|--2/4-4-4-4-4-4-4-7-7-7-7-7-7-7-7-2-2-2-2-2-2-2-2-4-4-4-4-4-4-4-4----------|
E|------------------5-5-5-5-5-5-5-5-0-0-0-0-0-0-0-0-2-2-2-2-2-2-2-2---x4-----|

    The things that used to mean so much to me
    Have gone the way of dinosaurs, hopes and dreams and everything
    All I want for you to be is happy, or something
    I guess anything is better than the time you spent hoping I'd get it sorted out!

e|-----------------------------------------------------------------------------|
B|-----------------------------------------------------------------------------|
G|----------------------------6-6-6-6-4-6--------------------------------------|
D|--2-2-2-2-2---4-6-----------x-x-x-x-4-6--------------------------------------|
A|--2-2-2-2-2---4-6-----------4-4-4-4-2/4--------------------------------------|
E|--0-0-0-0-0-X-2/4--x3--------------------------------------------------------|

INTRO PART B (AGAIN):

e|-------------------------------|
B|-------------------------------|
G|--------------4-6--------------|
D|--2-2-2-2-2-2-4-6--------------|
A|--2-2-2-2-2-2-2-4--------------|
E|--0-0-0-0-0-0-----x4-----------|

Lead Guitar/Synth:

e|---------------------------------------------------------------------------|
B|--5-5-5-5-5-4-2-0-5-5-5-5-5-7-4-4-5-5-5-5-5-4-2-0-2-2-2-0-2-0-4------------|
G|---------------------------------------------------------------------------|
D|---------------------------------------------------------------------------|
A|-----------------------------------------------------------------x2--------|
E|---------------------------------------------------------------------------|

PRECHORUS:

e|---------------------------------------------------------------------------|
B|---------------------------------------------------------------------------|
G|---------------------------------------------------------------------------|
D|--7-7-7-7-7-7-7-7-7-7-7-7-7-7-7-7-9-9-9-9-9-9-9-9-9-9-9-9-9-9-9-9----------|
A|--7-7-7-7-7-7-7-7-7-7-7-7-7-7-7-7-9-9-9-9-9-9-9-9-9-9-9-9-9-9-9-9----------|
E|--5-5-5-5-5-5-5-5-5-5-5-5-5-5-5-5-7-7-7-7-7-7-7-7-7-7-7-7-7-7-7-7---x2-----|

     I sent you a postcard, but the post office sent it back....
     They said the building's been torn down, I just miss what I thought we both had

FINAL CHORUS:

e|---------------------------------------------------------------------------|
B|---------------------------------------------------------------------------|
G|---------------------------------------------------------------------------|
D|--------2-2-2-2-4-4-4-4-7-7-7-7-7-7-7-7------------------------------------|
A|--------2-2-2-2-4-4-4-4-7-7-7-7-7-7-7-7------------------------------------|
E|--------0-0-0-0-2-2-2-2-5-5-5-5-5-5-5-5--x4--------------------------------|

  If we'd only stayed  together
  I might not have fallen apart
  But the words you said destroyed my planet
  It's all my fucking fault!

e|---------------------------------------------------------------------------|
B|---------------------------------------------------------------------------|
G|---------------------------------------------------------------------------|
D|--------2-2-2-2-4-4-4-4-7-7-7-7-7-7-7-7-----------7-7-7-7-7-7-4-6----------|
A|--------2-2-2-2-4-4-4-4-7-7-7-7-7-7-7-7-----------7-7-7-7-7-7-4-6----------|
E|--------0-0-0-0-2-2-2-2-5-5-5-5-5-5-5-5--x5-------5-5-5-5-5-5-2/4----------|

  If we'd only stayed  together                     Anything at all
  I might not have fallen apart
  But the words you said destroyed my planet
  and I stall before I start
   I stall before I start


And that's the whole song, in order. Shouldn't be any mistakes, any comments or 
feel free to comment the tab or e-mail me.


| /  slide up
| \  slide down
| h  hammer-on
| p  pull-off
| ~  vibrato
| +  harmonic
| x  Mute note
===============================================================================
comments
print report bad tab
3 comments total.
0 reply
masterduke1 wrote on February 5 2010, 02:56 pm

Great tab! I'm glad someone put this up. Could you tab the alternative version for Worker Bee? That would be much appreciated

0 reply
BigCoatWeather wrote on February 6 2010, 02:06 pm

brilliant!

0 reply
Bair wrote on March 24 2010, 03:45 pm

Every note is correct and it set up for easy play...nice work

I want to post or [tab]
guest
You may want to rate the tab now too:
select rating
Please do not post tabs as comments. Select "correction" instead!