Oops, an error
Loading. Please wait.

Her Words Destroyed My Planet Tab

version 2
version 2

Whole song

Interactive

1,395 views 3 this week
1 commentread comment
1 2 3 4 5
worth learning
x 2
add to favorites
launch autoscroll
font size
0
reset
how to read this tab
guitar tuner
Tab Pro tools
  • play this tab
  • loop segment
  • change instrument
  • show fretboard
  • metronome
Autoscroll
slow
fast
+/-
esc
set tempo
stop
This is my second tab (don't let that deter you!). Sounds good to me =).
Any questions/ suggestions e-mail BWong872@yahoo.com

Intro/Verse:

E|-----------------------------------------------------------------|
B|-----------------------------------------------------------------|
G|-4/6-----------------4/6-----------------------------------------|
D|-4/6--2------6-------4/6--2-------6------7-------9---------------|
A|-2/4--2------6-------2/4--2-------6------7-------9---------------|
E|------0xalot-4xalot-------0xalot--4xalot-5xalot--7xalot----------|

Riff 1:
*Sounds equally good (IMO) picked as solo notes (pick the higher notes).

E|--------------------------------|
B|--------------------------------|
G|--9--9--9--9--9--9--8---6---4---|
D|--------------------------------|
A|--7--7--7--7--7--7--6---4---2---|
E|--------------------------------|

E|--------------------------------|
B|--------------------------------|
G|--9--9--9--9--9--9--11--8-------|
D|--------------------------------|
A|--7--7--7--7--7--7--9---6-------|
E|--------------------------------|

E|--------------------------------|
B|--------------------------------|
G|--9--9--9--9--9--9--8---6---4---|
D|--------------------------------|
A|--7--7--7--7--7--7--6---4---2---|
E|--------------------------------|

E|---------------------------------|
B|---------------------------------|
G|--6--6--6--6--6--6--4---6---4--8-|
D|---------------------------------|
A|--4--4--4--4--4--4--2---4---2--6-|
E|---------------------------------|

Verse:

E|--------------------------------------------------------------|
B|--------------------------------------------------------------|
G|------------------4/6-----------------------------------------|
D|---2------6-------4/6--2-------6------7-------9---------------|
A|---2------6-------2/4--2-------6------7-------9---------------|
E|---0xalot-4xalot-------0xalot--4xalot-5xalot--7xalot----------|

*Second time through, instead of playing "577" and "799", I play:

E|----------------|
B|--------9-------|
G|-9--11-----11---|
D|----------------|
A|----------------|
E|----------------|xalot

Chorus (?)
*Rhythm (There's something played over this, but I can't
figure it out).
*IDK why, but I suck at choruses.

E|-----------------------------|
B|-----------------------------|
G|-----------------------------|
D|--2-2-2-2--4-4-4-4--7-7-7-7--|
A|--2-2-2-2--4-4-4-4--7-7-7-7--|
E|--0-0-0-0--2-2-2-2--5-5-5-5--|
*End strumming the "022"

Riff 1:
*Sounds equally good and less sloppy (IMO) picked as 
solo notes (pick the higher notes).

E|--------------------------------|
B|--------------------------------|
G|--9--9--9--9--9--9--8---6---4---|
D|--------------------------------|
A|--7--7--7--7--7--7--6---4---2---|
E|--------------------------------|

E|--------------------------------|
B|--------------------------------|
G|--9--9--9--9--9--9--11--8-------|
D|--------------------------------|
A|--7--7--7--7--7--7--9---6-------|
E|--------------------------------|

E|--------------------------------|
B|--------------------------------|
G|--9--9--9--9--9--9--8---6---4---|
D|--------------------------------|
A|--7--7--7--7--7--7--6---4---2---|
E|--------------------------------|

E|---------------------------------|
B|---------------------------------|
G|--6--6--6--6--6--6--4---6---4--8-|
D|---------------------------------|
A|--4--4--4--4--4--4--2---4---2--6-|

Riff 2:

E|--------------------------------------------|
B|--------------------------------------------|
G|-------------------------------4--6--4------|
D|----------------------------------------6---|
A|-7h9--7h9--11--11--9--7--6---4--------------|
E|--------------------------------------------|x2

Then,

E|----------------|
B|--------9-------|
G|-9--11-----11---|
D|----------------|
A|----------------|
E|----------------|xalot

Chorus (?)
*Rhythm (There's something played over this, but I can't
figure it out).
*IDK why, but I suck at choruses.

E|-----------------------------|
B|-----------------------------|
G|-----------------------------|
D|--2-2-2-2--4-4-4-4--7-7-7-7--|
A|--2-2-2-2--4-4-4-4--7-7-7-7--|
E|--0-0-0-0--2-2-2-2--5-5-5-5--|
*End strumming the "022"

Bridge

E|------------------------------------------------------------------------|
B|------------------------------------------------------------------------|
G|-4/6--6--6--6--6--6-6-----------------9-9-9-9-9-9-9-9-9-9-9-9-9-9-9-9-9-|
D|-4/6--6--6--6--6--6-6-7-7-7-7-7-7-7-7-9-9-9-9-9-9-9-9-9-9-9-9-9-9-9-9-9-|
A|-2/4--4--4--4--4--4-4-7-7-7-7-7-7-7-7-7-7-7-7-7-7-7-7-7-7-7-7-7-7-7-7-7-|
E|----------------------5-5-5-5-5-5-5-5-----------------------------------|

Then,

E|------------------|
B|------------------|
G|-9-9-9-9-9---4/6--|
D|-9-9-9-9-9---4/6--|
A|-7-7-7-7-7---2/4--|
E|------------------|x3 followed by

E|-------------|
B|-------------|
G|-6-6-6-6-6-6-|
D|-------------|
A|-4-4-4-4-4-4-|
E|-------------|

Riff 1:
*Sounds equally good and less sloppy (IMO) picked as 
solo notes (pick the higher notes).

E|--------------------------------|
B|--------------------------------|
G|--9--9--9--9--9--9--8---6---4---|
D|--------------------------------|
A|--7--7--7--7--7--7--6---4---2---|
E|--------------------------------|

E|--------------------------------|
B|--------------------------------|
G|--9--9--9--9--9--9--11--8-------|
D|--------------------------------|
A|--7--7--7--7--7--7--9---6-------|
E|--------------------------------|

E|--------------------------------|
B|--------------------------------|
G|--9--9--9--9--9--9--8---6---4---|
D|--------------------------------|
A|--7--7--7--7--7--7--6---4---2---|
E|--------------------------------|

E|---------------------------------|
B|---------------------------------|
G|--6--6--6--6--6--6--4---6---4--8-|
D|---------------------------------|
A|--4--4--4--4--4--4--2---4---2--6-|

Then,

E|----------------|
B|--------9-------|
G|-9--11-----11---|
D|----------------|
A|----------------|
E|----------------|xalot

E|--------------------------------|
B|--------------------------------|
G|--------------------------------|
D|-7-7-7-7-7-7-7-7--9-9-9-9-9-9---|
A|-7-7-7-7-7-7-7-7--9-9-9-9-9-9---|
E|-5-5-5-5-5-5-5-5--7-7-7-7-7-7---|

Chorus (?)
*Rhythm (There's something played over this, but I can't
figure it out).
*IDK why, but I suck at choruses.

E|-----------------------------|
B|-----------------------------|
G|-----------------------------|
D|--2-2-2-2--4-4-4-4--7-7-7-7--|
A|--2-2-2-2--4-4-4-4--7-7-7-7--|
E|--0-0-0-0--2-2-2-2--5-5-5-5--|
*End strumming the "022"

Outro:

E|--------------------|
B|--------------------|
G|--------------------|
D|--7-7-7-7------9/11-|
A|--7-7-7-7------9/11-|
E|--5-5-5-5xalot-7/9--|
comments
We did not receive enough feedback on this tab! Please rate:
print report bad tab
1 2 3 4 5
1 comment total.
0 reply
ACA wrote on November 16 2010, 07:22 pm

The "Riff 1" is very good. Otherwise, I would stick to the other tab. These two tabs combined offer a very complete picture of the song. Note that MCS usually plays this a half-step down when playing acoustic.

I want to post or [tab]
guest
You may want to rate the tab now too:
select rating
Please do not post tabs as comments. Select "correction" instead!