Oops, an error
Loading. Please wait.

History Lesson Tab

6,228 views 9 this week
no commentswrite comment
1 2 3 4 5
accurate
x 4
add to favorites
launch autoscroll
font size
0
reset
how to read this tab
guitar tuner
Tab Pro tools
  • play this tab
  • loop segment
  • change instrument
  • show fretboard
  • metronome
×
Best way to learn
"History Lesson"
Autoscroll
slow
fast
+/-
esc
set tempo
stop
Difficulty
novice
These are just the chords for each section of the song.. it's fairly easy to 
figure out the strumming pattern. 

                             History Lesson - Motion City Soundtrack
-------------------------------------------------------------------------------
Tabbed by: Sean
Email: welivewithwoe@hotmail.com

Tuning: Half-Step Up or Capo on the first fret

Intro/Chorus
e|-3----3----3---2-----|
B|-3----3----3---3-----|
G|-0----0----0---2-----|
D|-0----2----2---0-----| x2
A|-2----2----3---0-----|
E|-3----0----x---x-----|

Verse
e|-3---2-----------|
B|-3---3-----------|
G|-0---2-----------|
D|-2---0-----------| x3
A|-3---0-----------|
E|-x---x-----------|

Chorus x2

Verse x5

Chorus x2

Bridge
e|-3---2---3--------|
B|-3---3---3--------|
G|-0---2---0--------|
D|-2---0---2--------| x3
A|-2---0---3--------|
E|-0---x---x--------|


Bridge ends with the build-up of this chord:
e|-2-|
B|-3-|
G|-2-|
D|-0-| 
A|-0-|
E|-x-|

The rest of the songs is transposed a whole step up, or a capo on the 3rd fret. 

e|-3---3---3-----|
B|-3---3---3-----|
G|-0---0---0-----|
D|-0---2---2-----| x7
A|-2---2---3-----|
E|-3---0---x-----|

Then:
e|-2---|
B|-3---|
G|-2---|
D|-0---| x16
A|-0---|
E|-x---|

Ending on:
e|-3---|
B|-3---|
G|-0---|
D|-0---|
A|-2---|
E|-3---|

comments
print report bad tab
I want to post or [tab]
guest
You may want to rate the tab now too:
select rating
Please do not post tabs as comments. Select "correction" instead!