Oops, an error
Loading. Please wait.

Hold Me Down Tab

version 1
version 1

Whole song

Interactive

10,608 views 21 this week
4 commentsread comments
1 2 3 4 5
accurate
x 5
add to favorites
launch autoscroll
font size
0
reset
how to read this tab
guitar tuner
Autoscroll
slow
fast
+/-
esc
set tempo
stop
Help us to improve Ultimate-Guitar.com Take our survey!
×
Contributor
fret13 2,028
Artist:Motion City Soundtrack
Song:Hold Me Down
Album:Commit This To Memory(Deluxe Edition)
Tuning:Half Step Down
 Eb Ab Db Gb Bb eb
(D# G# C# F# A# d#)
Tabbed by:fret136@hotmail.com

***IF YOU WANT A TUTORIAL BY ME GO HERE***
http://www.youtube.com/watch?v=ce7rwzGpfcQ&feature=channel_page

ok. this is half step down. wierd right?
yeah i know... um play before you rate please.
Thank you so much.

|--|
|--|
|--|
|--|
|--|
|--|
GUITAR 1

Intro ("I found a letter..."
|-------0---------------------------0-----------------------|x2
|---3-----3---3---3-----3---3---3-----3---3---3-----3-------|
|-----2-----2-------2-------------2-----2-------2-----------|
|-0-------------------2---2---0-------------------2---0h2p0-|
|---------------4---------------------------4---------------|
|-----------------------------------------------------------|

|---3-(3)(3)(3)(3)(3)(3)(3)-|x2
|---3-(3)(3)(3)(3)(3)(3)(3)-|
|---0-(0)(0)(0)(0)(0)(0)(0)-|
|---------------------------|
|---------------------------|
|-3~------------------------|

|-------0---------------------------0-----------------------|
|---3-----3---3---3-----3---3---3-----3---3---3-----3-------|
|-----2-----2-------2-------------2-----2-------2-----------|
|-0-------------------2---2---0-------------------2---0h2p0-|
|---------------4---------------------------4---------------|
|-----------------------------------------------------------|

Verse x2
|-----------------------------0---------------------------------0-5---|
|-----3-----2-------------2/3---2-------3-----2-------------2/3-------|
|---------------2-----2-----------2---------------2-----2-----------2-|
|-0-0---0-0---0---------------------0-0---0-0---0---------------------|
|-----------------0-0---0---------------------------0-0---0-----------|
|---------------------------------------------------------------------|

|-----------------------------0---------------------------------------|
|-----3-----2-------------2/3---2-------3-----2-----------------------|
|---------------2-----2-----------2---------------2-----2---2---2h4-2-|
|-0-0---0-0---0---------------------0-0---0-0---0-------------2-------|
|-----------------0-0---0---------------------------0-0---0-----------|
|---------------------------------------------------------------------|

Post-Verse 1 ("you hold me down")
|-3~3~3~3~-|
|-3~3~3~3~-|
|-0~0~0~0~-|
|-0~0~0~0~-|
|----------|
|----------|

Chorus
|-----------------------------|x4
|----------------7---7--------|
|-7-7-6-7-77-7-7-7-9-7-----0~-|
|-9-9-9-9-99-7-7-7-7-7---0-0~-|
|-9-9-9-9-99-0-0-5-5-5-2-2-2~-|
|----------------------3-3-3--|

Verse
|-----------------------------0---------------------------------0-5---|
|-----3-----2-------------2/3---2-------3-----2-------------2/3-------|
|---------------2-----2-----------2---------------2-----2-----------2-|
|-0-0---0-0---0---------------------0-0---0-0---0---------------------|
|-----------------0-0---0---------------------------0-0---0-----------|
|---------------------------------------------------------------------|

|-----------------------------0---------------------------------------|
|-----3-----2-------------2/3---2-------3-----2-----------------------|
|---------------2-----2-----------2---------------2-----2---2---2h4-2-|
|-0-0---0-0---0---------------------0-0---0-0---0-------------2-------|
|-----------------0-0---0---------------------------0-0---0-----------|
|---------------------------------------------------------------------|

Post-Verse 2 ("you hold me down")
|-3~3~3~3~-|
|-3~3~3~3~-|
|-0~0~0~0~-|
|-0~0~0~0~-|
|-2~2~2~2~-|
|-3~3~3~3~-|

Chorus
|-----------------------------|x9
|----------------7---7--------|
|-7-7-6-7-77-7-7-7-9-7-----0~-|
|-9-9-9-9-99-7-7-7-7-7---0-0~-|
|-9-9-9-9-99-0-0-5-5-5-2-2-2~-|
|----------------------3-3-3--|
===========================================================================
GUITAR 2
Doesnt play until Verse

Verse
|-0~----|x4
|-3~-2~-|
|-2~-2~-|
|-0~-2~-|
|----4~-|
|-------|


|-----------------------------------------------------------------|x2
|-----------------------------------------------------------------|
|-----------------------------------------------------------------|
|-----------------------------------------------------------------|
|-5-5-5-5-5-5-5-5-0-0-0-2-2-2-4-4-5-5-5-5-5-5-5-5-0-0-0h2-2-2-0-0-|
|-.-.-.-.-.-.-.-.-.-.-.-.-.-.-.-.-.-.-.-.-.-.-.-.-.-.-.-.-.-.-.-.-|

Post-Verse 1 ("you hold me down")
|-3~3~3~3~-|
|-3~3~3~3~-|
|-0~0~0~0~-|
|-0~0~0~0~-|
|----------|
|----------|

Doesnt play first Chorus

Verse
|-0~----|x4
|-3~-2~-|
|-2~-2~-|
|-0~-2~-|
|----4~-|
|-------|

Post-Verse 2 ("you hold me down")
|-3~3~3~3~-|
|-3~3~3~3~-|
|-0~0~0~0~-|
|-0~0~0~0~-|
|-2~2~2~2~-|
|-3~3~3~3~-|

Chorus
|-2~0~--3~-|x3
|-3~2~7~3~-|
|-4~2~7~0~-|
|-4~0~7~0~-|
|-2~0~5~2~-|
|-------3~-|

|-2~0~--3-3---3-|x4
|-3~2~7~3-3---3-|
|-4~2~7~0-0---0-|
|-4~0~7~0-0---0-|
|-2~0~5~2-2-2-2-|
|-------3-3-3-3-|

|-2~0~--3~-|
|-3~2~7~3~-|
|-4~2~7~0~-|
|-4~0~7~0~-|
|-2~0~5~2~-|
|-------3~-|
=============================================================================
Heres the Synth part that plays through most of the song


|-----|
|-7---|
|---0-|
|-----|
|-----|
|-----|
Suggest correction new What's this?
You can suggest a correction to this tab. Community and Mods will review your correction and vote to approve or reject it.
comments
print report bad tab
4 comments total. Showing first comments.
0 reply
juliaP 27 wrote on July 3 2008, 02:27 pm

youre on the right track, its tunned a half step down

0 reply
zachtherunner 308 wrote on April 1 2009, 12:43 am

i liked it.
except for the chorus chords.
those were kinda weird.

0 reply
Auals 1,308 wrote on February 20 2010, 05:59 am

In this version, it would be better to take the A chord you've put in there out and hold the G for two bars, the A is most definitely not held for a bar, you even show that in the first chorus and then put it in the second one as well, apart from that, I like it. Much easier to play this way. Thanks.

I want to post or [tab]
guest
You may want to rate the tab now too:
select rating
Please do not post tabs as comments. Select "correction" instead!