Oops, an error
Loading. Please wait.

Hold Me Down Tab

version 3
version 3

Whole song

Interactive

1,078 views 4 this week
2 commentsread comments
1 2 3 4 5
please rate
add to favorites
launch autoscroll
font size
0
reset
how to read this tab
guitar tuner
Tab Pro tools
  • play this tab
  • loop segment
  • change instrument
  • show fretboard
  • metronome
×
Best way to learn
"Hold Me Down"
Autoscroll
slow
fast
+/-
esc
set tempo
stop
Artist: Motion City Soundtrack
Song: Hold Me Down
Album: Commit This To Memory
Tabbed By: Michael Yoshinaga

( Bass enters at ( 0:35 )   Enjoy!!!

Post Intro
G:----------|
D:----------|
A:--4-------|
E:-------4--|

Verse 1    “I’ll Have My Brother Stop By This Saturday”
G:---------------------------------|
D:---------------------------------|
A:-4-4-4-4-4-4-4-6-----------------|  x4
E:-----------------4-4-4-4-4-4-4-4-|

Chorus     “You Hold Me Down”
G:--------|
D:--------|
A:--9-----|  x4
E:--------|

( Pause )

Post Chorus  ( 1:55 )
Part 1
G:------------------------------------------|
D:------------------------------------------| Go Straight into part two
A:-4-4-4-4-4-4-4-4-/15-15-15-13-13-13-11-11-| Both parts is one (Whole Thing)
E:------------------------------------------|

Part2
G:----------------------------------------------------|
D:----------------------------------------------------|
A:--4-4-4-4-4-4-4-4-/15-15-15-13-13-13-18-18----------|
E:----------------------------------------------------|
Do the Whole Thing x2


Verse 2  ( 2:11 )
(Is the Same thing as the Post Chorus)

Chorus     “You Hold Me Down”
G:--------|
D:--------|
A:--9-----|  x4
E:--------|

Bridge/Outro
G:----------------------------------------|
D:----------------------------------------|
A: -4-----------------------------9-------|  x4
E:-----------------4----------------------|

G:-----------------------------------------------------------------|
D:-----------------------------------------------------------------|
A:-4-4-4-4-4-4-4-4-----------------9-9-9-9-9-9-9-9-9-9-9-9-9-9-9-9-| x4
E:-----------------4-4-4-4-4-4-4-4---------------------------------|
comments
We did not receive enough feedback on this tab! Please rate:
print report bad tab
1 2 3 4 5
2 comments total.
0 reply
Reesh wrote on July 12 2006, 06:17 am

This isnt a guitar tab

0 reply
scottt106 wrote on August 4 2006, 07:49 pm

this is a bass tab, not a guitar tab

I want to post or [tab]
guest
You may want to rate the tab now too:
select rating
Please do not post tabs as comments. Select "correction" instead!