Oops, an error
Loading. Please wait.

Invisible Monsters Tab

1,802 views 1 this week
1 commentread comment
1 2 3 4 5
please rate
add to favorites
launch autoscroll
font size
0
reset
how to read this tab
guitar tuner
Autoscroll
slow
fast
+/-
esc
set tempo
stop
Help us to improve Ultimate-Guitar.com Take our survey!
×
Contributor
Difficulty
Tuning
rko 2,039
novice
D A D G B E
INTRO  x4                then
e---------------------]---------------------|
B---------------------]---------------------|
G---------------------]-8888----------------|
D---------------------]-6666-8888-5555-6666-|
A---------------------]-6666-6666-6666-6666-|
D-5555-8888-1111-6666-]-6666-6666-6666-6666-|


PRE VERSE x2
Guitar 1 (10s)
e-----------------------------------------------------------------|
B-----------------------------------------------------------------|
G-----------------------------------------------------------------|
D-1010101010-1010101010---88888-88888---66666-66666---66666-66666-|
A-1010101010-1010101010---88888-88888---66666-66666---66666-66666-|
D-1010101010-1010101010---88888-88888---66666-66666---66666-66666-|

Guitar 2 (11s and 12s)
e-------------------------------------------------------|
B-------------------------------------------------------|
G-------------------------------------------------------|
D-------------------------------------------------------|
A-11111111-11111111-12121212-12121212-6666-6666-6666----|
D-----------------------------------------------------8-|


VERSE 1 x4
Guitar 1
e---------------------------------------------------|
B---------------------------------------------------|
G---------------------------------------------------|
D------------10--------10----10---------8-----8---8-|
A------------10--------10----10---------8-----8---8-|
D-1010101010----101010----10------88888---888---8---|

e-------------------------------------|
B-------------------------------------|
G-------------------------------------|
D-------6-----6---6-------6-----6---6-|
A-------6-----6---6-------6-----6---6-|
D-66666---666---6---66666---666---6---|


PRE CHORUS x2 (1s)
Both Guitars
e---------------------|
B---------------------|
G---------------------|
D-5555-8888-1111-6666-|
A-5555-8888-1111-6666-|
D-5555-8888-1111-6666-|


CHORUS x2 (1s)
Guitar 1
e---------------------]-------------------|
B---------------------]-------------------|
G---------------------]-------------------|
D-5555-8888-1111-6666-]-------------------|
A-5555-8888-1111-6666-]-------------------|
D-5555-8888-1111-6666-]-66666666-66666666-|

Guitar 2 (11s)
e---------------------|
B-11-11-11-11---99-88-|
G---------------------|
D---------------------|
A---------------------|
D---------------------|


VERSE 2 x4
Guitar 1
e---------------------------------------------------|
B---------------------------------------------------|
G---------------------------------------------------|
D------------10--------10----10---------8-----8---8-|
A------------10--------10----10---------8-----8---8-|
D-1010101010----101010----10------88888---888---8---|

e-------------------------------------|
B-------------------------------------|
G-------------------------------------|
D-------6-----6---6-------6-----6---6-|
A-------6-----6---6-------6-----6---6-|
D-66666---666---6---66666---666---6---|

Guitar 2 x2 (then tremolo pick) (10s and 11s)
e-111111-111111-101010-101010-----------------------------|
B-----------------------------111111-111111-111111-111111-|
G---------------------------------------------------------|
D---------------------------------------------------------|
A---------------------------------------------------------|
D---------------------------------------------------------|


Repeat Pre Chorus and Chorus


BRIDGE x8
Guitar 1
e------------------------------------------------------------------------------|
B------------------------------------------------------------------------------|
G--------12-------12-----12-----3-----3----3----10----10---10-----8-----8----8-|
D--------10-------10-----10-----1-----1----1-----8-----8----8-----6-----6----6-|
A--------10-------10-----10-----1-----1----1-----8-----8----8-----6-----6----6-|
D-101010---101010---1010----111---111---11---888---888---88---666---666---66---|


Guitar 2
e----------------------------------------|
B-8-6-4---8-6-4---8-6-4---6-8-6-8-6-4~-6-|
G-------3-------3------------------------|
D----------------------------------------|
A----------------------------------------|
D----------------------------------------|

e-------------------------------------|
B-8-6-4---8-6-4---8-6-4---6-8-6-8-1-4-|
G-------3-------3---------------------|
D-------------------------------------|
A-------------------------------------|
D-------------------------------------|

Guitar 1
e-----------------------------------------------------------------|
B-----------------------------------------------------------------|
G-----------------------------------------------------------------|
D-1010101010-1010101010---88888-88888---66666-66666---66666-66666-|
A-1010101010-1010101010---88888-88888---66666-66666---66666-66666-|
D-1010101010-1010101010---88888-88888---66666-66666---66666-66666-|

Guitar 2 (11s and 12s)
e----------------------------------------------------------|
B----------------------------------------------------------|
G----------------------------------------------------------|
D----------------------------------------------------------|
A-11111111-11111111-12121212-12121212-6666-6666-6666-------|
D-----------------------------------------------------8888-|

Moog (if you wanna play along)
         x4              then
e---------------------]----------------------|
B---------------------]----------------------|
G----------6-8h10-8---]-8h10-8-8h10-8-8h10-8-|
D------6h8------------]----------------------|
A-6h8-----------------]----------------------|
D---------------------]----------------------|

         X2             then
e---------------------]----------------------|
B---------------------]----------------------|
G----------6-8h10-8---]-8h10-8-8h10-8-8h10-8-|
D------6h8------------]----------------------|
A-6h8-----------------]----------------------|
D---------------------]----------------------|


Chorus x2

Intro
comments
We did not receive enough feedback on this tab! Please rate:
print report bad tab
1 2 3 4 5
1 comment total.
0 reply
Faust27 11 wrote on July 1 2010, 10:31 pm

Excellent Tab for an excellent song

I want to post or [tab]
guest
You may want to rate the tab now too:
select rating
Please do not post tabs as comments. Select "correction" instead!