Oops, an error
Loading. Please wait.

It Had To Be You Bass Tab

2,315 views 1 this week
no commentswrite comment
1 2 3 4 5
please rate
add to favorites
launch autoscroll
font size
0
reset
guitar tuner
Tab Pro tools
  • play this tab
  • loop segment
  • change instrument
  • show fretboard
  • metronome
×
Best way to learn
"It Had To Be You"
Autoscroll
slow
fast
+/-
esc
set tempo
stop
Tuned Eb,Ab,Db,Gb

Pre Chorus 1		enter at 0:37
Gb|---------------------------------|---------------------------------|
Db|---------------------------------|---------------------------------|
Ab|-00000000------------------------|---------------------------------|
Eb|---------000000007777777777777777|-5555555500000000777777777777----|

Chorus
Gb|---------------------------------|
Db|---------------------------------|
Ab|---------------------------------|	x2
Eb|------0~-2~-5~---0~-2~-5~-7~-----|

Verse 2

Gb|---------------------------------|
Db|---------------------------------|
Ab|-----------------2222222222222222|	x4
Eb|-0000000000000000----------------|

Pre-Chorus 2
Gb|---------------------------------|
Db|---------------------------------|
Ab|-----00000000--------22222222----|	x2
Eb|-------------00000000------------|

Bridge
Gb|---------------------------------|---------------------------------|
Db|---------------------------------|---------------------------------|
Ab|-----------------0000000000000000|---------------------------------|
Eb|-0000000000000000----------------|-22222222555555550000000000000000|

Gb|---------------------------------|---------------------------------|
Db|---------------------------------|---------------------------------|
Ab|-----------------0000000000000000|---------------------------------|
Eb|-0000000000000000----------------|-22222222555555555~--------------|

Outro
Gb|---------------------------------|
Db|---------------------------------|
Ab|-----------------0~~~~~~2~~~~~~~-|
Eb|-0~~~~~~~2~~~~~~~----------------|

Gb|---------------------------------|---------------------------------|
Db|---------------------------------|---------------------------------|
Ab|-----------------0~~~~~~2~~~~~~~-|---------------------------------|
Eb|-0~~~~~~~2~~~~~~~----------------|-0~~~~~~~~~~~~--4~~~~~~~~~~~-----|

Intro/Verse 1 (no bass)
Pre chorus 1 0:37
Chorus
Verse 2
Pre Chorus 2
Chorus
Bridge
Intro/Verse 1
Pre chorus 1
Chorus
Outro
comments
We did not receive enough feedback on this tab! Please rate:
print report bad tab
1 2 3 4 5
I want to post or [tab]
guest
You may want to rate the tab now too:
select rating
Please do not post tabs as comments. Select "correction" instead!