Oops, an error
Loading. Please wait.

Last Night Tab

version 1
version 1

Whole song

11,898 views 1 this week
3 commentsread comments
1 2 3 4 5
x 3
add to favorites
launch autoscroll
font size
0
reset
how to read this tab
guitar tuner
Autoscroll
slow
fast
+/-
esc
set tempo
stop
Help us to improve Ultimate-Guitar.com Take our survey!
×
Author
Artist: Motion City Soundtrack
Song: Last Night
Album: Even If It Kills Me
Tunning: Half step down [eb Bb Gb Db Ab Eb]
Tabbed By: >>Max<<

This is only Josh (guitar 1) for right now. I'll try to upadate it later
with the other guitar. (I think) This is finger picked pretty quickly, so it's difficult 
play if you haven't really finger picked much before.
One way that makes it a little easier to play in my opinion (if you can't play it some 
way) is to form a "C" shape with the index finger a thumb around the two strings that are 
and kinda rock them back and forth.

**The order and "times played" are listed at the bottom**

INTRO GUITAR 1
|-----------------------------------------|
|-----------------------------------------|
|----11---11---11---11---11---11---11--11-|
|-----------------------------------------|
|-----------------------------------------|
|-10---10---10---10---10---10---10---10---|


VERSE GUITAR 1
|--------------------------------------------------------------|
|--------------------------------------------------------------|
|----11---11---11---11---11---11---11---11---11---11---11---11-|
|--------------------------------------------------------------|
|--------------------------------------------------------------|
|-10---10---10---10---10---10---10---10---10---10---10---10----|

|--------------------------|
|--------------------------|
|-----12----12----12----12-|
|--------------------------|
|--------------------------|
|--12----12----12----12----|

|-------------------------------------------------------------|
|-------------------------------------------------------------|
|----7----7----7----7----7----7----7----7----7----7----7----7-|
|-------------------------------------------------------------|
|-------------------------------------------------------------|
|-7----7----7----7----7----7----7----7----7----7----7----7----|

|-------------------------|
|-------------------------|
|-----6-----6-----6-----6-|
|-------------------------|
|-------------------------|
|--5-----5-----5-----5----|

CHORUS GUITAR 1
|--------------------------------------|
|--------------------------------------|
|----2----2----2----2----2----2----2---|
|--------------------------------------|
|--------------------------------------|
|-3----3----3----3----3----3----3----3-|

|-----------------------------------------|
|-----------------------------------------|
|----6----6----6-----6---6----6----6----6-|
|-----------------------------------------|
|-----------------------------------------|
|-5----5----5----5----5----5----5----5----|

|-------------------------------------------------------------|
|-------------------------------------------------------------|
|----7----7----7----7----7----7----7----7----7----7----7----7-|
|-------------------------------------------------------------|
|-------------------------------------------------------------|
|-7----7----7----7----7----7----7----7----7----7----7----7----|

|-------------------------|
|-------------------------|
|-----6-----6-----6-----6-|
|-------------------------|
|-------------------------|
|--5-----5-----5-----5----|

|--------------------------------------|
|--------------------------------------|
|----2----2----2----2----2----2----2---|
|--------------------------------------|
|--------------------------------------|
|-3----3----3----3----3----3----3----3-|

|-----------------------------------------|
|-----------------------------------------|
|----6----6----6-----6---6----6----6----6-|
|-----------------------------------------|
|-----------------------------------------|
|-5----5----5----5----5----5----5----5----|


BRIDGE GUITAR 1
|----------------------------------------|
|----------------------------------------|
|----11---11---11---11---11---11---11----|
|----------------------------------------| x2
|----------------------------------------|
|-10---10---10---10---10---10---10---10--|

|--------------------------------------|
|--------------------------------------|
|----2----2----2----2----2----2----2---|
|--------------------------------------|
|--------------------------------------|
|-3----3----3----3----3----3----3----3-|

|-----------------------------------------|
|-----------------------------------------|
|----6----6----6-----6---6----6----6----6-|
|-----------------------------------------|
|-----------------------------------------|
|-5----5----5----5----5----5----5----5----|

|-----------------------------------------|
|-----------------------------------------|
|----0----0----0-----0---0----0----0----0-|
|-----------------------------------------|
|-----------------------------------------|
|-0----0----0----0----0----0----0----0----|

|---------------------------------------|
|---------------------------------------|
|----11---11---11---11---11---11---11---|
|---------------------------------------|
|---------------------------------------|
|-10---10---10---10---10---10---10---10-|

|--------------------------------------|
|--------------------------------------|
|----2----2----2----2----2----2----2---|
|--------------------------------------|
|--------------------------------------|
|-3----3----3----3----3----3----3----3-|

|-----------------------------------------|
|-----------------------------------------|
|----6----6----6-----6---6----6----6----6-|
|-----------------------------------------|
|-----------------------------------------|
|-5----5----5----5----5----5----5----5----|

|-----------------------------------------|
|-----------------------------------------|
|----0----0----0-----0---0----0----0----0-|
|-----------------------------------------|
|-----------------------------------------|
|-0----0----0----0----0----0----0----0----|

|---------------------------------------|
|---------------------------------------|
|----11---11---11---11---11---11---11---|
|---------------------------------------|
|---------------------------------------|
|-10---10---10---10---10---10---10---10-|

|--------------------------------------|
|--------------------------------------|
|----2----2----2----2----2----2----2---|
|--------------------------------------|
|--------------------------------------|
|-3----3----3----3----3----3----3----3-|

|-----------------------------------------|
|-----------------------------------------|
|----6----6----6-----6---6----6----6----6-|
|-----------------------------------------|
|-----------------------------------------|
|-5----5----5----5----5----5----5----5----|

ORDER GUITAR 1
INTRO x2
VERSE x2
CHORUS x1
VERSE x4
CHORUS x1
INTRO X2
VERSE X2
CHORUS x1
BRIDGE X1
VERSE x2
CHORUS x2
INTRO X4
Suggest correction
Give kudos to tab author, rate the tab!
1 2 3 4 5
comments
print report bad tab
3 comments total.
0 reply
>>Eric<< 30 Oct 04, 2007 08:22 PM

dude, thank you for tabbing this song. MCS is amazing, and this tab is pretty good. nice job

0 reply
fret13 1,031 Oct 12, 2007 11:05 PM

its fairly accurate. good job. 4*

0 reply
Disengagedpotato 10 Oct 28, 2016 05:42 PM

will we ever get the other guitar? :(((

guest
You may want to rate the tab now too:
select rating
Wanna post a correction for this tab? Suggest correction