Oops, an error
Loading. Please wait.

Lg Fuad Tab

version 2
version 2

Whole song

51,112 views 21 this week
9 commentsread comments
1 2 3 4 5
accurate
x 23
add to favorites
launch autoscroll
font size
0
reset
how to read this tab
guitar tuner
Autoscroll
slow
fast
+/-
esc
set tempo
stop
Help us to improve Ultimate-Guitar.com Take our survey!
×
----------------------------------------------------------------------------
                     L.G. Fuad - Motion City Soundtrack
----------------------------------------------------------------------------
Tabbed by: crimson_addict78
Email: crimson_addict78@yahoo.com

Tuning:standard

verse
e|--------------------------------------------------------|
B|--------------------------------------------------------|
G|--6-x8--5-x8--6-x8--------------6-x8--5-x8--3-x8--------|
D|--6-----5-----6-----3-x4--4-x4--6-----5-----3-----6-x8--|
A|--4-----3-----4-----3-----4-----4-----3-----1-----6-----|
E|--------------------1-----2-----------------------4-----|
Pm  .........................................................
Let's get f***ed up and die..
I'm speaking figuratively, of course..
Like the last time that I committed suicide.. social suicide..

e|------------------------------------------------------------|
B|------------------------------------------------------------|
G|--6-x8--5-x8--6-x8--------------6-x8--5-x8--3-x8------------|
D|--6-----5-----6-----3-x4--4-x4--6-----5-----3-----66666666--|
A|--4-----3-----4-----3-----4-----4-----3-----1-----66666666--|
E|--------------------1-----2-----------------------44444444--|
Pm  ............................................    .....
Yeah, so I'm already dead on the inside,
But I can still pretend with my memories and photographs,
I've learned to love the lie.


CHORUS
e|--------------------------------------------------------------------------|
B|--6----6----6---9----9--------------------------------------------------|
G|---6----6--------8----8---8----10------10------------10-----13-10-----|x3
D|---------------------------------11------11----11------11---------13-11--|
A|4----4----4----6----6----6---8-------8-------8-----8-------8-------------|
E|--------------------------------------------------------------------------|

e|----------------------------------------||-----------|
B|----6------6------6-----9------9--------||----13-\---|
D|------6------6------------8------8----8-||-13-----x16|
G|----------------------------------------||-------/---|
A|--4------4------4-----6------6------6---||-----------|
E|----------------------------------------||-----------|

Guitar 2 
e|-------------------------|
B|-------------------------|
G|-------------------------|
D|----4----6----8----11----|x3
A|----4----6----8----11----|
E|----2----4----6----9-----|
     
e|-----------------------------------------------|
B|-----------------------------------------------|
G|-----------------------------------------------|
D|-4----6----66666666-66666666-66666666-66666666-|
A|-4----6----66666666-66666666-66666666-66666666-|
E|-2----4----44444444-44444444-44444444-44444444-|
           pm........ ........    ..... ........
I wanna know what it's like to be awkward and innocent, not belligerent.
I wanna know how it feels to be useful and pertinent and have common sense.. yeah
Let me in, let me in to the club, cuz I wanna belong,
And I need to get strong, and if memory serves,
I'm addicted to words and they're useless.
 (In this department)


verse -distortion
e|-------------------------------------------------------------|
B|-------------------------------------------------------------|
G|---66666666--5-----6-----------------6-----5-----3-----------|
D|---66666666--5-x8--6-x8--3-x4--4-x4--6-x8--5-x8--3-x8--6-x8--|
A|---44444444--3-----4-----3-----4-----4-----3-----1-----6-----|
E|-------------------------1-----2-----------------------4-----|
  pm  ........................................................
Let's get fucked up and die..
I'm riding hard on the last legs of every lie,
And the BMX bike of my life is about to explode, I'm about to explode.
e|------------------------------------------------------------|
B|------------------------------------------------------------|
G|--6-x8--5-x8--6-x8--------------6-x8--5-x8--3-x8------------|
D|--6-----5-----6-----3-x4--4-x4--6-----5-----3-----66666666--|
A|--4-----3-----4-----3-----4-----4-----3-----1-----66666666--|
E|--------------------1-----2-----------------------44444444--|
Pm  ............................................    .....
I'm a mess, I'm a wreck.
I am perfect, and I have learned to accept all my problems and short comings,
Because I am so visceral, yet deeply inept.

CHORUS
e|-------------------------|
B|-------------------------|
G|-------------------------|x3
D|----4----6----8----6-----|
A|----4----6----8----6-----|
E|----2----4----6----4-----|
     
e|--------------------------------------------------|
B|--------------------------------------------------|
G|--------------------------------------------------|
D|-4----6----66666666-66666666-66666666-66666666----|
A|-4----6----66666666-66666666-66666666-66666666----|
E|-2----4----44444444-44444444-44444444-44444444----|
           pm........ ........    ..... ........
I want to thank you for being a part of my the forget-me-nots and marigolds..
And all the things that don't get old..
Is it legal to do this? I surely don't know.
It's the only way I have learned to express myself around other peoples' descriptions of life..
I'm afraid I'm alone and entirely useless...
(in this department)

verse -distortion
e|-------------------------------------------------------------|
B|-------------------------------------------------------------|
G|---66666666--5-----6-----------------6-----5-----3-----------|
D|---66666666--5-x8--6-x8--3-x4--4-x4--6-x8--5-x8--3-x8--6-x8--|
A|---44444444--3-----4-----3-----4-----4-----3-----1-----6-----|
E|-------------------------1-----2-----------------------4-----|
  pm  ........................................................
Let's get fucked up and die.
For the last time I'm feeling
we'll try not to smile
As we cover our heads and drink heavily into the nights
That’s no shocking and surprise.

e|------------------------------------------------------------|
B|------------------------------------------------------------|
G|--6-x8--5-x8--6-x8--------------6-x8--5-x8--3-x8------------|
D|--6-----5-----6-----3-x4--4-x4--6-----5-----3-----6---------|
A|--4-----3-----4-----3-----4-----4-----3-----1-----6---------|
E|--------------------1-----2-----------------------4---------|
Pm .............................................    .
I believe that I can, overcome this and beat everything in the end
But I choose to abuse for the time being,
maybe I'll win, but for now I've decided to die.

CHORUS 
e|------------------------|
B|------------------------|
G|------------------------|
D|----4----6----8----6----|x2
A|----4----6----8----6----|
E|----2----4----6----4----|
Sister soldier
You’ve been such a positive influence on my mental frame
If I could ever repay you, 
I would, but I'm hard up for cash
And my memory lacks initiative.

strumming
e|---------------------------------------|
B|---------------------------------------|
G|---------------------------------------|
D|--4----6-----8-----6----4----6---------|
A|--4----6-----8-----6----4----6---------|
E|--2----4-----6-----4----2----4---------|
God damn the liquor stores' closed,
we were so close to scoring
it hurts, it destroys til it kills..
I am tired and hungry and totally useless.


Strumming and palm mutes toward end.
e|----------------|
B|----------------|
G|--6-------------|
D|--6-------------|
A|--4-------------|
E|----------------|
Suggest correction
comments
print report bad tab
9 comments total. Showing first comments.
0 reply
loveheart58 10 wrote on October 21 2006, 12:57 pm

G|---5-
D|---5-
A|---3-

0 reply
loveheart58 10 wrote on October 21 2006, 12:57 pm

insted of that above ^
play this...
G|---6-
D|---6-
A|---3-

0 reply
loveheart58 10 wrote on October 21 2006, 01:01 pm

but apart frm that goOd tab liid!

guest
You may want to rate the tab now too:
select rating
Please do not post tabs as comments. Select "correction" instead!