Oops, an error
Loading. Please wait.

Lg Fuad Tab

version 3
version 3

Whole song

7,051 views 4 this week
no commentswrite comment
1 2 3 4 5
accurate
x 3
add to favorites
launch autoscroll
font size
0
reset
how to read this tab
guitar tuner
Tab Pro tools
  • play this tab
  • loop segment
  • change instrument
  • show fretboard
  • metronome
×
Best way to learn
"Lg Fuad"
Autoscroll
slow
fast
+/-
esc
set tempo
stop
Contributor
Difficulty
novice
LG FUAD
Motion City Soundtrack
Commit This To Memory

Okay people, I used Adobe Audition to remove the vocals to hear the guitar part
clear, and this is what I heard.  So, it should be very accurate.  Like most of my stuff 
is
for one guitar; it is pretty obvious where two are playing at once, and over the whole 
pretty much all of both parts is covered.


Verse
Chorus
Verse
Chorus
Verse *
Bridge (The first part of the bridge is kind of like a chorus)
Outro


Duration Legend
---------------
W - whole
H - half
Q - quarter
E - 8th
S - 16th

Tablature Legend
----------------

x - dead note
h - hammer on
p - pull off

Verse
     PM PM PM PM PM PM PM PM    PM PM PM PM PM PM PM PM    PM PM PM PM PM PM PM PM
     E  E  E  E  E  E  E  E     E  E  E  E  E  E  E  E     E  E  E  E  E  E  E  E
E||--------------------------|--------------------------|--------------------------|
B||--------------------------|--------------------------|--------------------------|
G||--------------------------|--------------------------|--------------------------|
D||--6--6--6--6--6--6--6--6--|--6--6--6--6--6--6--6--6--|--6--6--6--6--6--6--6--6--|
A||--4--4--4--4--4--4--4--4--|--3--3--3--3--3--3--3--3--|--4--4--4--4--4--4--4--4--|
E||--------------------------|--------------------------|--------------------------|


  PM PM PM PM PM PM PM PM    PM PM PM PM PM PM PM PM    PM PM PM PM PM PM PM PM
  E  E  E  E  E  E  E  E     E  E  E  E  E  E  E  E     E  E  E  E  E  E  E  E
--------------------------|--------------------------|--------------------------|
--------------------------|--------------------------|--------------------------|
--------------------------|--------6-----------6-----|--------6-----------6-----|
--------------------------|--6--6--6--6--6--6--6--6--|--6--6--6--6--6--6--6--6--|
--4--4--4--4--4--4--4--4--|--4--4--4--4--4--4--4--4--|--3--3--3--3--3--3--3--3--|
--1--1--1--1--2--2--2--2--|--------------------------|--------------------------|


  PM PM PM PM PM PM PM PM    PM PM PM PM PM PM PM PM    PM PM PM PM PM PM PM PM
  E  E  E  E  E  E  E  E     E  E  E  E  E  E  E  E     E  E  E  E  E  E  E  E
--------------------------|--------------------------|--------------------------|
--------------------------|--------------------------|--------------------------|
--------------------------|--------------------------|--------6-----------6-----|
--------------------------|--------------------------|--6--6--6--6--6--6--6--6--|
--8--8--8--8--8--8--8--8--|--6--6--6--6--6--6--6--6--|--4--4--4--4--4--4--4--4--|
--6--6--6--6--6--6--6--6--|--4--4--4--4--4--4--4--4--|--------------------------|


  PM PM PM PM PM PM PM PM    PM PM PM PM PM PM PM PM    PM PM PM PM PM PM PM PM
  E  E  E  E  E  E  E  E     E  E  E  E  E  E  E  E     E  E  E  E  E  E  E  E
--------------------------|--------------------------|--------------------------|
--------------------------|--------------------------|--------------------------|
--------6-----------6-----|--------6-----------6-----|--------------------------|
--6--6--6--6--6--6--6--6--|--6--6--6--6--6--6--6--6--|--------------------------|
--3--3--3--3--3--3--3--3--|--4--4--4--4--4--4--4--4--|--4--4--4--4--4--4--4--4--|
--------------------------|--------------------------|--1--1--1--1--2--2--2--2--|


  PM PM PM PM PM PM PM PM    PM PM PM PM PM PM PM PM    PM PM PM PM PM PM PM PM
  E  E  E  E  E  E  E  E     E  E  E  E  E  E  E  E     E  E  E  E  E  E  E  E
--------------------------|--------------------------|--------------------------|
--------------------------|--------------------------|--------------------------|
--------6-----------6-----|--------6-----------6-----|--------------------------|
--6--6--6--6--6--6--6--6--|--6--6--6--6--6--6--6--6--|--------------------------|
--4--4--4--4--4--4--4--4--|--3--3--3--3--3--3--3--3--|--8--8--8--8--8--8--8--8--|
--------------------------|--------------------------|--6--6--6--6--6--6--6--6--|

  E  E  E  S  S  E  E  E  E
-----------------------------||
-----------------------------||
-----------------------------||
--6--6--6--x--x--6--6--6--6--||
--6--6--6--x--x--6--6--6--6--||
--4--4--4--x--x--4--4--4--4--||

*End with this on last verse:
     PM PM PM
     E  E  E  E
E||--------------||
B||--------------||
G||--------------||
D||-----------6--||
A||--6--6--6--6--||
E||--4--4--4--4--||


Chorus
     E  E  E  E  E  E  Q       E  E  E  E  E  E  Q       E  E  E  E  E  E  Q
E||-------------------------|-------------------------|-------------------------|
B||--6--------6--------6----|--9--------9--------9----|--6--------6--------6----|
G||-----6--------6----------|-----6--------6----------|-----6--------6----------|
D||--------6--------6-------|--------6--------6-------|--------6--------6-------|
A||-------------------------|-------------------------|-------------------------|
E||-------------------------|-------------------------|-------------------------|


  Q    Q     E   E  Q       E  E  E  E  E  E  Q       E  E  E  E  E  E  E  S S
-------------------------|-------------------------|---------------------------|
--6----------------------|--6--------6--------6----|--6--------6--------6------|
-------8----10p--8--6----|-----6--------6----------|-----6--------6--------x-x-|
-------------------------|--------6--------6-------|--------6--------6-----x-x-|
-------------------------|-------------------------|-----------------------x-x-|
-------------------------|-------------------------|---------------------------|


  Q    E  E  E  E  E  E     E  E  E  E  E  E  E  E     E  E  E  E  E  E  E  E
----------8-----8-----8--|-----8-----8-----8-----8--|-----8-----8-----8-----8--|
-------9-----9-----9-----|--9-----9-----9-----9-----|--9-----9-----9-----9-----|
--6----------------------|--------------------------|--------------------------|
--6----------------------|--------------------------|--------------------------|
--4----------------------|--------------------------|--------------------------|
-------------------------|--------------------------|--------------------------|


  PM PM PM PM PM PM PM PM
  E  E  E  E  E  E  E  E
-----8-----8-----8-----8--||
--9-----9-----9-----9-----||
--------------------------||
--6--6--6--6--6--6--6--6--||
--4--4--4--4--4--4--4--4--||
--------------------------||

Bridge
     W                   W                   W                   W
E||-------------------|-------------------|-------------------|-------------------|
B||-------------------|-------------------|-------------------|-------------------|
G||-------------------|-------------------|--3----------------|-------------------|
D||--4----------------|--6----------------|--3----------------|--6----------------|
A||--4----------------|--6----------------|--1----------------|--4----------------|
E||--2----------------|--4----------------|-------------------|--4----------------|


  W                   W                   W                   W
-------------------|-------------------|-------------------|-------------------|
-------------------|-------------------|-------------------|-------------------|
-------------------|-------------------|--3----------------|-------------------|
--4----------------|--6----------------|--3----------------|--6----------------|
--4----------------|--6----------------|--1----------------|--4----------------|
--2----------------|--4----------------|-------------------|--4----------------|


  Q    Q    Q    Q       Q    Q    Q    Q       Q    Q    Q    Q
----------------------|----------------------|----------------------|
----------------------|----------------------|----------------------|
----------------------|----------------------|--6----6----6----6----|
--4----4----4----4----|--6----6----6----6----|--6----6----6----6----|
--4----4----4----4----|--6----6----6----6----|--4----4----4----4----|
--2----2----2----2----|--4----4----4----4----|----------------------|


  Q    Q    Q    Q       Q    Q    Q    Q       Q    Q    Q    Q
----------------------|----------------------|----------------------||
----------------------|----------------------|----------------------||
----------------------|----------------------|----------------------||
--6----6----6----6----|--4----4----4----4----|--6----6----6----6----||
--4----4----4----4----|--4----4----4----4----|--6----6----6----6----||
--4----4----4----4----|--2----2----2----2----|--4----4----4----4----||

Outro
     E  E  E  E  E  E  E  E
E||--------------------------||
B||--------------------------||
G||--6--6--6--6--6--6--6--6--||
D||--6--6--6--6--6--6--6--6--||
A||--4--4--4--4--4--4--4--4--||
E||--------------------------||

Synth Part to Outro.
     E  E  E  E  E  E   E  E     E  E  E  E   E   E   E   E
E||--9-----9-----9------------|-----9-----9--11--13--14--16\--||
B||--------------------11--9--|-------------------------------||
G||---------------------------|-------------------------------||
D||---------------------------|-------------------------------||
A||---------------------------|-------------------------------||
E||---------------------------|-------------------------------||
comments
We did not receive enough feedback on this tab! Please rate:
print report bad tab
1 2 3 4 5
I want to post or [tab]
guest
You may want to rate the tab now too:
select rating
Please do not post tabs as comments. Select "correction" instead!