Oops, an error
Loading. Please wait.

Make Out Kids Bass Tab

version 1
version 1

Whole song

Interactive

1,927 views 12 this week
2 commentsread comments
1 2 3 4 5
accurate
x 3
add to favorites
launch autoscroll
font size
0
reset
guitar tuner
Autoscroll
slow
fast
+/-
esc
set tempo
stop
Help us to improve Ultimate-Guitar.com Take our survey!
×
"Make Out Kids"
by Motion City Soundtrack


Verse (0:12)
G|----------------------------------------------------||
D|----------------------------------------------------||
A|-666-6-6--------------------------------------------||   x4
E|----------44--6666---888-8-8--44--6666--------------||  

(0:36)
G|----------------------------------------------------||
D|----------------------------------------------------||
A|-66666666-------------------------------------------|| x2
E|-----------44446666--88888888--44446666-------------||

(0:48)
G|----------------------------------------------------||
D|----------------------------------------------------||
A|-666-6-6--------------------------------------------||   x2
E|---------44--6666---888-8-8--44--6666---------------||  

Chorus (1:00)
G|----------------------------------||
D|----------------------------------||
A|-333------------------------------|| x 4
E|-----444-66666666-----------------||

(1:10)
G|-------------------------------------------||
D|-------------------------------------------||
A|-----------------1~------------------------||
E|-11111111111111----------------------------||

Verse (1:13)
G|----------------------------------=------------------||
D|-----------------------------------------------------||
A|-666-6-6----------------------------------------=----||   x4
E|---------44--6666---888-8-8--44--6666----------------||  


Chorus (1:37)
G|------------------------------------------||
D|------------------------------------------||
A|-333--------------------------------------|| x 8
E|-----444-66666666-------------------------||

(1:58)
G|----------------------------------||
D|----------------------------------||
A|----------------------------------||
E|-1~-------------------------------||

Bridge (2:04)
G|-----------------------------------------------------------||
D|-----------------------------------------------------------||
A|--33333333------------66666666-----------------------------||
E|------------44444444------------66666666-------------------||

Verse (2:28)
G|--------------------------------------------------------||
D|--------------------------------------------------------||
A|-666-6-6------------------------------------------------||   x2
E|---------44--6666---888-8-8--44--6666-------------------||  



Suggest correction
Give kudos to tab author, rate the tab!
1 2 3 4 5
comments
print report bad tab
2 comments total.
+1 reply
BassBeats098 150 wrote on April 13 2006, 06:52 pm

I find it easier to play the song on third fret on the A string rather than the 8th fret on the E.

+1 reply
Jilljoy 56 wrote on September 7 2012, 10:14 am

For the Bridge I think you should try this instead :)
Bridge (2:04)
G|-----------------------------------------------------------||
D|-----------------------------------------------------------||
A|--44444444------------66666666-----------------------------||
E|------------44444444------------66666-8-------------------||

guest
You may want to rate the tab now too:
select rating
Wanna post a correction for this tab? Suggest correction