Oops, an error
Loading. Please wait.

Make Out Kids Tab

version 1
version 1

Whole song

Interactive

5,021 views 6 this week
4 commentsread comments
1 2 3 4 5
x 7
add to favorites
launch autoscroll
font size
0
reset
how to read this tab
guitar tuner
Autoscroll
slow
fast
+/-
esc
set tempo
stop
Help us to improve Ultimate-Guitar.com Take our survey!
×
Author
Difficulty
novice
intro/outro:

e-----------|
b-----------|
g--8--5--7--|
d--8--5--7--|
a--6--3--5--|
e-----------|

solo thing:

e--4-3---------4-3--------4-3---------4-3--------------|
b--------4-6---------4-6--------4-6---------4-6-8-6----|
g------5-----5-----5----------5-----5-----5---------8--|
d------------------------------------------------------|
a------------------------------------------------------|
e------------------------------------------------------|


chorus:

e----------------------------|
b----------------------------|
g--5--6--8----3---------3----|
d--5--6--8-or-3--x3--3--3----|
a--3--4--6----1------3--1----|
e--------------------1-------|


bridge:

e------------------------|
b------------------------|
g--6-----8-----5---------|
d--6--6--8--8--5---------|
a--4--6--6--8--3---------|
e-----4-----6------------|

i'm pretty sure this is it, it's not too hard.
i'm a lazy person and so i didn't put down
every stroke so you'll have to play it with
the song or something to figure it out.
Suggest correction
comments
print report bad tab
4 comments total. Showing first comments.
0 reply
nfgrox312 155 Jul 29, 2006 11:09 PM

e-
B-
G-
D-131313313131331313 101010 121212
A-101010101010101010 111111 131313
E-
thats how the intro goes. my friend got the tab from justin so i didnt actually tab it but its cool to see how its actually played.

0 reply
darian1234567 233 Sep 10, 2006 12:51 PM

pretty good tab.
If you wanted to get some higher ratings it would be easier for newer people to understand if you put how many times to play each chord because sumtimes that confuses people.

0 reply
gtr-boy 278 Oct 25, 2006 11:53 PM

this is a bad tab my friend cause no shit u were lazy this is so far from right the (little solo thing) is the only thing that is right
im giving this a 2

guest
You may want to rate the tab now too:
select rating
Wanna post a correction for this tab? Suggest correction