Oops, an error
Loading. Please wait.

Mary Without Sound Tab

version 1
version 1

Intro

Whole song

1,603 views 3 this week
no commentswrite comment
1 2 3 4 5
please rate
add to favorites
launch autoscroll
font size
0
reset
how to read this tab
guitar tuner
Tab Pro tools
  • play this tab
  • loop segment
  • change instrument
  • show fretboard
  • metronome
Autoscroll
slow
fast
+/-
esc
set tempo
stop
Contributor
rko
INTRO/CHORUS
Guitar 1
e--------------------------------------------|
B--------------------------------------------|
G-444444-66-888888-66---444444-66-888888-----|
D-444444-66-888888-66---444444-66-888888-6/8-|
A-222222-44-666666-44---222222-44-666666-6/8-|
E----------------------------------------4/6-|

e---------------------------------------------------|
B---------------------------------------------------|
G-444444-66-888888-66---444444-66---8-------4-------|
D-444444-66-888888-66---444444-66---8-(x32)-4-(x16)-|
A-222222-44-666666-44---222222-44---6-------2-------|
E---------------------------------------------------|

Guitar 2
e--------------------------------------------|
B--------------------------------------------|
G-444444-66-888888-66---444444-66-888888-----|
D-444444-66-888888-66---444444-66-888888-6/8-|
A-222222-44-666666-44---222222-44-666666-6/8-|
E----------------------------------------4/6-|

e----------------------------------11b-11b-7b-11b-11b-7b-11b-11b-7b-11b-11b-7b-|
B------------------------------------------------------------------------------|
G-444444-66-888888-66---444444-66----------------------------------------------|
D-444444-66-888888-66---444444-66----------------------------------------------|
A-222222-44-666666-44---222222-44----------------------------------------------|
E------------------------------------------------------------------------------|


VERSE 1 (0.30)
Guitar 1 x4
e-----1------------------1--------1-1h2p1-|
B-------2-------2-4---------2-------------|
G-----------------------------------------|
D--------------------1-1------------------|
A-2-2-------4-4-----------------4---------|
E-----------------------------------------|

Guitar 2 (0.43)
e---------|
B---------|
G-11------|
D-11(x16)-
A---------|
E---------|

Guitar 1
e------------------|
B------------------|
G-44~---88~---66/8-|
D-44~---88~---66/8-|
A-22~---66~---44/6-|
E------------------|

Guitar 2
e-------------------------|
B-------------------------|
G-11------10------11------|
D-11(x24)-11-(x4)-11-(x4)-|
A-------------------------|
E-------------------------|


Repeat Chorus


VERSE 2
Guitar 1
e-----1------------------1--------1-1h2p1-|
B-------2-------2-4---------2-------------|
G-----------------------------------------|
D--------------------1-1------------------|
A-2-2-------4-4-----------------4---------|
E-----------------------------------------|

e-----1-------------------1-1-1h2p1---------------|
B-------2-------2-4-----------------2---2h4-(x18)-|
G-------------------------------------------------|
D--------------------1-1--------------------------|
A-2-2-------4-4-----------------------------------|
E-------------------------------------------------|

Guitar 1
e------------------|
B------------------|
G-44~---88~---66/8-|
D-44~---88~---66/8-|
A-22~---66~---44/6-|
E------------------|

Guitar 2
e-------------------------|
B-------------------------|
G-11------10------11------|
D-11(x24)-11-(x4)-11-(x4)-|
A-------------------------|
E-------------------------|

Guitar 1
e-6-----|
B---6-7-|
G-------|
D-------|
A-------|
E-------|


BRIDGE x4
Both Guitars
e-------------------------------------|
B-------------------------------------|
G-44444444-------------------44444444-|
D-44444444-44444444-66666666-44444444-|
A-22222222-44444444-66666666-22222222-|
E----------22222222-44444444----------|


Repeat Chorus
comments
We did not receive enough feedback on this tab! Please rate:
print report bad tab
1 2 3 4 5
I want to post or [tab]
guest
You may want to rate the tab now too:
select rating
Please do not post tabs as comments. Select "correction" instead!