Oops, an error
Loading. Please wait.

Modern Chemistry Tab

version 1
version 1

Intro

Whole song

Interactive

339 views 1 this week
no commentswrite comment
1 2 3 4 5
please rate
add to favorites
launch autoscroll
font size
0
reset
how to read this tab
guitar tuner
Autoscroll
slow
fast
+/-
esc
set tempo
stop
Help us to improve Ultimate-Guitar.com Take our survey!
×
Contributor
Difficulty
intermediate
Ok so i was screwin around on my guitar and tryin to figure out the moog part towards
the beginning of the song...right after the intro lyrics and guitar. and i thought it
was so sick that i had to share it with the world...

so this is what i got and im almost positive that its 100% accurate so comment if u
agree or if im wrong...

Tuning: Standard ( EADGBe )

Moog Part (over the guitar and other stuff) - (00:20-00:41)

e|---------------------------------------------|
B|---------13----------------------------------|
G|------13----13-------------------------------|
D|---13----------13----10------------10--13----|
A|------------------------13--11--13--------11-|
E|---------------------------------------------|

e|---------------------------------------------|
B|---------13----------------------------------|
G|------13----13----------------------------13-|
D|---13----------13----10------------10--13----|
A|------------------------13--11--13-----------|
E|---------------------------------------------|

e|---------------------------------------------|
B|---------13----------------------------------|
G|------13----13-------------------------------|
D|---13----------13----10------------10--13----|
A|------------------------13--11--13--------11-|
E|---------------------------------------------|

e|-----------------------------------------------------|
B|-----------------------------------------------------|
G|------13----12----13----12----13----12----13--12--10-|
D|---10----10----10----10----10----10----10------------|
A|-----------------------------------------------------|
E|-----------------------------------------------------|

e|-------------------------------------------------------|
B|-------------------------------------------------------|
G|------13----12----13----12--10--12--13--15--13--15--13-|
D|---11----11----11----11--------------------------------|
A|-------------------------------------------------------|
E|-------------------------------------------------------|


you can get the tempo down...

play it with the song and itl sound good...if you just play it without the song,
the first time wont sound too accurate...but it is, i promise
Suggest correction What's this?
You can suggest a correction to this tab. Community and Mods will review your correction and vote to approve or reject it.
comments
We did not receive enough feedback on this tab! Please rate:
print report bad tab
1 2 3 4 5
I want to post or [tab]
guest
You may want to rate the tab now too:
select rating
Please do not post tabs as comments. Select "correction" instead!