Oops, an error
Loading. Please wait.

My Favorite Accident Bass Tab

version 1
version 1

Whole song

Interactive

3,520 views 6 this week
no commentswrite comment
1 2 3 4 5
excellent!
x 4
add to favorites
launch autoscroll
font size
0
reset
guitar tuner
Tab Pro tools
  • play this tab
  • loop segment
  • change instrument
  • show fretboard
  • metronome
Autoscroll
slow
fast
+/-
esc
set tempo
stop
Contributor
Tabbed By : Xcrimson_ghostX
e-mail: invisibleXman900@aim.com

Tuning: standard

Intro
G|--------------------|
D|--------------------|
A|--------------------| x3
E|-666-44444-22222222-|

G|--------------|
D|--------------|
A|--------------| 
E|-666-44444-2~-|

Verse
G|-----------------|
D|-----------------|
A|-----------------|
E|-6666-4444-2222~-|

Pre-Chorus
G|-----------------------------------------|
D|-----------------------------------------|
A|-----------------------------------------| 
E|666-44444-22222222-666-44444-22222-22222-|

Chorus
G|-----------------------------------------|
D|----------------3-------------------1--3-|
A|-----------4444----3-----------4444------|
E|-1111-2222-----------1111-2222-----------|

G|-----------------------------------------|
D|----------------3------------------------|
A|-----------4444----3-----------4~------4-|
E|-1111-2222-----------1111-2222-----------|

Verse 2
G|--------------------|
D|--------------------|
A|--------------------|
E|-6666-4444-22222222-|

G|-----------|
D|-----------|
A|-----------|
E|-6666-4444-|

G|--------------------|
D|--------------------|
A|--------------------|
E|-6666-4444-22222222-|

G|--------------------|
D|--------------------|
A|-----------99999999-|
E|-6666-4444----------|

Fill
G|-1---1---|
D|--3---3--|
A|---4---4-|
E|---------|

Outro
G|-----------------------|
D|-----------------------|
A|-444444-444444->-------|
E|-----------------2222--|

intro
verse
prechorus
chorus
intro
verse 2
chorus
fill
chorus
verse 2
outro

| /  slide up
| \  slide down
| h  hammer-on
| p  pull-off
| ~  vibrato
| +  harmonic
| x  Mute note
===============================================================================
comments
print report bad tab
I want to post or [tab]
guest
You may want to rate the tab now too:
select rating
Please do not post tabs as comments. Select "correction" instead!