Oops, an error
Loading. Please wait.

Not Asking You To Leave Bass Tab

383 views 1 this week
no commentswrite comment
1 2 3 4 5
3 more votes to show rating
add to favorites
launch autoscroll
font size
0
reset
guitar tuner
Autoscroll
slow
fast
+/-
esc
set tempo
stop
Help us to improve Ultimate-Guitar.com Take our survey!
×
Author
Band: motion city soundtrack
Album: even if it kills me
Song: not asking you to leave

I know he uses drop d tuning but for 
simplicity I’ve used normal tuning

Please rate

~ = let ring
. = staccato

Intro:

G|----------------------------------|
D|----------------------------------| 
A|---------6~------4~---------------| x3
E|-4~-------------------------------|

G|----------------------------------|
D|----------------------------------| 
A|-8~------6~------4~---------------|
E|----------------------------------|

Verse 1: (0:23)

G|----------------------------------|
D|----------------------------------| 
A|-----------------4444444444444444-|
E|-4444444444444444-----------------|

G|----------------------------------|
D|------------------------------666-| 
A|-----------------4444444444444----|
E|-4444444444444444-----------------|

G|----------------------------------|
D|----------------------------------| 
A|-----------------4444444444444444-| x2
E|-4444444444444444-----------------|

Pre-chorus: (0:47)

G|----------------------------------|
D|----------------------------------| 
A|-88888888666666664444444444444444-|
E|----------------------------------|

G|----------------------------------|
D|----------------------------------| 
A|-88888888666666664~---------------|
E|----------------------------------|

Chorus (0:57)

G|----------------------------------|
D|----------------------------------| 
A|---------666666664444444444444444-| x3
E|-44444444-------------------------|

G|----------------------------------|
D|----------------------------------| 
A|-88888888666666664444444444444444-|
E|----------------------------------|

Verse 2: (1:21)

G|----------------------------------|
D|----------------------------------| 
A|-----------------4444444444444444-|
E|-4444444444444444-----------------|

G|------------------------------------|
D|-----------------------------(66666)| () = play double time
A|-----------------4444444444444------|
E|-4444444444444444-------------------|

G|----------------------------------|
D|----------------------------------| 
A|-----------------4444444444444444-| x2
E|-4444444444444444-----------------|

Then repeat:

Pre-chorus (1:46)
Chorus (1:56)

Then:

Bridge: (2:19)

G|----------------------------------|
D|----------------------------------| 
A|----------------------------------|
E|-66666666888888889999999999999999-|

G|------------------|
D|------------------| 
A|-8~------6~-------|
E|------------------|

Pause

(2:40):

G|----------------------------------|
D|----------------------------------| 
A|-----------------44---------------|
E|-44-------------------------------|

G|----------------------------------|
D|----------------------------------| 
A|-----------------4.---------------|
E|-44-------------------------------|

Repeat Chorus (2:53)

Then:

Ending: (3:16)

G|----------------------------------|
D|----------------------------------| 
A|---------666666664444444444444444-| x3
E|-44444444-------------------------|

G|----------------------------------|
D|----------------------------------| 
A|-88888888666666669~------4~-------|
E|----------------------------------|
Suggest correction
Give kudos to tab author, rate the tab!
1 2 3 4 5
comments
print report bad tab
guest
You may want to rate the tab now too:
select rating
Wanna post a correction for this tab? Suggest correction