Oops, an error
Loading. Please wait.

Perfect Teeth Bass Tab

version 1
version 1

Whole song

658 views 3 this week
3 commentsread comments
1 2 3 4 5
please rate
add to favorites
launch autoscroll
font size
0
reset
guitar tuner
Autoscroll
slow
fast
+/-
esc
set tempo
stop
Help us to improve Ultimate-Guitar.com Take our survey!
×
Author
-------------------------------------------------------------------------------
			     PERFECT TEETH - Motion City Soundtrack
-------------------------------------------------------------------------------

Tabbed By : Sam Hughes
e-mail:

Tuning: EADG(B - if 5 string)
I tabbed with a 5 String, you can move the stuff on the B string up to E and A if you 
but i think it sounds better on the lowest (Or you can use drop D, but this makes it 
to play)

Can't beleive no one worked this out yet, such an awesome song to play along to!

Intro/Chorus (0:21)
G|--------------------------------------------------------||
D|--------------------------------------------------------||
A|----------------5h6p5-----------------------------------||
E|-66---6------33-------3----33---------------------------||
B|-------44---4-----------66------------------------------||

Verse
G|--------------------------------------------------------||
D|--------------------------------------------------------||
A|--------------------------------------------------------||
E|-66666666--------33333333------3333---------------------||
B|---------44444444---------6666--------------------------||

Pre-Chorus
G|--------------------------------------------------------||
D|--------------------------------------------------------||
A|--------------------------------------------------------||
E|-66666666------------------4(let it ring)---------------||
B|---------44444444-66666666------------------------------||

Chorus

Verse

Verse with Fill (fill in at 1:29)
G|--------------------------------------------------------||
D|--------------------------------------------------------||
A|---------------------------------4----------------------||
E|-66666666--------33333333-------4-----------------------||
B|---------44444444---------6666-6------------------------||

Verse
Pre Chorus
Chorus

Mid 8(1:59)

G|--------------------------------------------------------||
D|--------------------------------------------------------||
A|-33333333444444446666666666666666-----------------------||
E|--------------------------------------------------------||
B|--------------------------------------------------------||

G|--------------------------------------------------------||
D|--------------------------3-33--------------------------||
A|-3333333344444444666666666-----5-55---------------------||
E|--------------------------------------------------------||
B|--------------------------------------------------------||

Break Down
G|--------------------------------------------------------||
D|--------------------------------------------------------||
A|-33----44-----------------------------------------------||
E|--------------------------------------------------------||
B|-----------4(let ring)----------------------------------||

Second Mid 8 thing (Rythm will come with listening to it)
G|--------------------------------------------------------||
D|--------------------------------------------------------||
A|--------------------------------------------------------||
E|-6-6-6-6-333444444444444-88866666666666-----------------||
B|--------------------------------------------------------||

G|--------------------------------------------------------||
D|--------------------------------------------------------||
A|--------------------------------------------------------||
E|-333444444444444-88866666666666-------------------------||
B|--------------------------------------------------------||

Pause in song
Fill (not sure if he plays anything, but this sounds good)
G|--------------------------------------------------------||
D|--------------------------------------------------------||
A|--------------------------------------------------------||
E|-6666/(eighteens)18181818-------------------------------||
B|--------------------------------------------------------||
No Vocals Chorus

Outro
G|--------------------------------------------------------||
D|--------------------------------------------------------||
A|-33----44-----------------------------------------------||
E|--------------------------------------------------------||
B|-----------4--------------------------------------------||

Song Order

Intro (0:21) x2
Verse (0:33) x3
Pre Chorus (0:52)x1
Chorus (1:01) x2
Pause (1:14)
Verse (1:16) 3
Pre Chorus (1:35ish)x1
Chorus (1:45) x2
Mid 8
Break Down
Second Mid 8 Thing
Fill
No Vocals Chorus
Outro

Listening to the song will help you understand the timings and stuff, it's a great song 
please do!

| /  slide up
| \  slide down
| h  hammer-on
| p  pull-off
| ~  vibrato
| +  harmonic
| x  Mute note
===============================================================================
Suggest correction
Give kudos to tab author, rate the tab!
1 2 3 4 5
comments
print report bad tab
3 comments total.
0 reply
LewisMasonx 1,741 wrote on January 11 2007, 11:48 am

I'm pretty sure Matt plays this in D rather than uses a five-string, but excellent tab :)

0 reply
Rubber 219 wrote on January 11 2007, 01:55 pm

well 5 string is easier :D thanks a lot

0 reply
nfgrox312 155 wrote on January 11 2007, 04:01 pm

matt plays all songs in Eb except when you're around. i dont think i've ever seen him play a 5 string either.

guest
You may want to rate the tab now too:
select rating
Wanna post a correction for this tab? Suggest correction