Oops, an error
Loading. Please wait.

Perfect Teeth Bass Tab

version 2
version 2

Whole song

871 views 1 this week
no commentswrite comment
1 2 3 4 5
1 last vote to show rating
add to favorites
launch autoscroll
font size
0
reset
guitar tuner
Autoscroll
slow
fast
+/-
esc
set tempo
stop
Help us to improve Ultimate-Guitar.com Take our survey!
×
Author
Difficulty
Tuning
novice
D A D G B E
This song is originally tabbed on here for a 5-string. So i thought I'd save a lot of 
some trouble, and tab it for a 4-string. Enjoy =)!
NOTE: This song is played in Drop D.

MOTION CITY SOUNDTRACK - PERFECT TEETH - I AM THE MOVIE
DROP-D TUNING (D-A-D-G)
Tabbed By: Kyle Arsenault

Intro(x2)/Chorus (0:21)
G|-------------------------------------------------------------||
D|-------------------------------------------------------------||
A|--------------------5h6p5------------------------------------||
D|-88---8\11----1/33--------8----333-555-111-(666)second time--||
          ^^ ones


Verse
G|--------------------------------------------------------||
D|--------------------------------------------------------||
A|--------------------------------------------------------||
D|-88888888--11111111--55555555---3333--5555-6666---------||

G|--------------------------------------------------------||
D|--------------------------------------------------------||
A|---------------------------------------5----------------||
D|-88888888-11111111-333333333333333-6-4------------------||

G|--------------------------------------------------------||
D|--------------------------------------------------------||
A|--------------------------------------------------------||
D|-88888888--11111111--55555555---3333--5555-6666---------||


Pre-Chorus
G|--------------------------------------------------------||
D|--------------------------------------------------------||
A|--------------------------------------------------------||
D|-88888888-33333333-55555555-6(let it ring)--------------||

Chorus
G|-------------------------------------------------------------||
D|-------------------------------------------------------------||
A|--------------------5h6p5------------------------------------||
D|-88---8\11----1/33--------8----333-555-111-(666)second time--||
          ^^ ones

Verse
G|--------------------------------------------------------||
D|--------------------------------------------------------||
A|--------------------------------------------------------||
D|-88888888--11111111--55555555---3333--5555-6666---------||

G|--------------------------------------------------------||
D|--------------------------------------------------------||
A|---------------------------------------5----------------||
D|-88888888-11111111-333333333333333-6-4------------------||

G|--------------------------------------------------------||
D|--------------------------------------------------------||
A|--------------------------------------------------------||
D|-88888888--11111111--55555555---3333--5555-6666---------||

Pre-Chorus
G|--------------------------------------------------------||
D|--------------------------------------------------------||
A|--------------------------------------------------------||
D|-88888888-33333333-55555555-6(let it ring)--------------||

Chorus
G|-------------------------------------------------------------||
D|-------------------------------------------------------------||
A|--------------------5h6p5------------------------------------||
D|-88---8\11----1/33--------8----333-555-111-(666)second time--||
          ^^ ones

Mid 8(1:59)

G|--------------------------------------------------------||
D|--------------------------------------------------------||
A|-33333333444444446666666666666666-----------------------||
D|--------------------------------------------------------||

G|--------------------------------------------------------||
D|--------------------------3-33--------------------------||
A|-3333333344444444666666666-----5-55---------------------||
D|--------------------------------------------------------||

Break Down
G|--------------------------------------------------------||
D|--------------------------------------------------------||
A|-33----44-----------------------------------------------||
E|--------------------------------------------------------||
B|-----------4(let ring)----------------------------------||

Second Mid 8 thing (Very awkward picking to this part. rythem will come with listening to it)
G|--------------------------------------------------------||
D|--------------------------------------------------------||
A|--------------------------------------------------------||
D|-8-8-8-8-555666666666666-101010888888888888-------------||


G|--------------------------------------------------------||
D|--------------------------------------------------------||
A|--------------------------------------------------------||
D|-555666666666666-101010888888888888---------------------||


No Vocals Chorus
G|-------------------------------------------------------------||
D|-------------------------------------------------------------||
A|--------------------5h6p5------------------------------------||
D|-88---8\11----1/33--------8----333-555-111-(666)second time--||
          ^^ ones

Outro
G|------------------------------------------------------------||
D|------------------------------------------------------------||
A|-33xxx-44xxx------------------------------------------------||
D|--------------1~~-------------------------------------------||
Suggest correction
Give kudos to tab author, rate the tab!
1 2 3 4 5
comments
print report bad tab
guest
You may want to rate the tab now too:
select rating
Wanna post a correction for this tab? Suggest correction