Oops, an error
Loading. Please wait.

Point Of Extinction Bass Tab

1,570 views 1 this week
1 commentread comment
1 2 3 4 5
accurate
x 1
add to favorites
launch autoscroll
font size
0
reset
guitar tuner
Tab Pro tools
  • play this tab
  • loop segment
  • change instrument
  • show fretboard
  • metronome
Autoscroll
slow
fast
+/-
esc
set tempo
stop
Contributor
-------------------------------------------------------------------------------
		Point of Extinction - Motion City Soundtrack
-------------------------------------------------------------------------------

Tabbed By : Valerie L
e-mail:  iloled@yahoo.com
Tuning: standard

verse "Burning Bridges...."
G|------------------------|--------------------|
D|------------------------|--------------------|
A|------------------------|--------------------|
E|-3333-4444-6666-8888-x2-|-3333-4444-66666666-|

Chorus "I'm so tired, I've had enough..."
G|-------------------------------------------------|
D|-------------------------------------------------|
A|----66---------66-----------66-------------------|
E|-4---------4------------4---------8-66-444444444-|

verse "Burning Bridges...."
G|-----------------------------------------|
D|-----------------------------------------|
A|-----------------------------------------|
E|-3333-4444-6666-8888--3333-4444-66666666-| x4

Chorus x1

Bridge "This is the best..."
G|------------------------------------|
D|------------------------------------|
A|------------------------------------|
E|8888888888888p666-44444444444444p333| x3

G|---------------------------------|
D|-------------5h6p5---------------|
A|-----------6-------6-------------|
E|8888888888------------4-4-4--4-4-|

Breakdown "I can figure out the point of anything..."
G|-------------------------------------------|
D|-------------------------------------------|
A|-------------------------------------------|
E|3333-4444-6666-8888-x2--3333-4444-66666666-|

G|------------------------|--------------------|
D|------------------------|--------------------|
A|------------------------|--------------------|
E|-3333-4444-6666-8888-x2-|-3333-4444-66666666-|

Chorus x1

Outro
G|-----------------------|
D|-----------------------|
A|--66---565---565-------|
E|4----6-----6------6----| x2
comments
We did not receive enough feedback on this tab! Please rate:
print report bad tab
1 2 3 4 5
1 comment total.
0 reply
chrisjenks wrote on February 5 2008, 07:57 am

I think the e string should be tuned down 2 steps (dadg) because on the chorus it should be

G|--------
D|--------
A|--------
D|-6--11-- (two 1's)

So what you've done is correct but one note is an octave higher.

I want to post or [tab]
guest
You may want to rate the tab now too:
select rating
Please do not post tabs as comments. Select "correction" instead!