Oops, an error
Loading. Please wait.

Red Dress Tab

version 3
version 3

Whole song

551 views 3 this week
no commentswrite comment
1 2 3 4 5
please rate
add to favorites
launch autoscroll
font size
0
reset
how to read this tab
guitar tuner
Tab Pro tools
  • play this tab
  • loop segment
  • change instrument
  • show fretboard
  • metronome
×
Best way to learn
"Red Dress"
Autoscroll
slow
fast
+/-
esc
set tempo
stop
Contributor
#----------------------------------PLEASE NOTE--------------------------------#
#This file is the author's own work and represents their interpretation of the#
#song. You may only use this file for private study, scholarship, or research.#
#-----------------------------------------------------------------------------#
#-- File created with Instab - http://www.pconline.com/~smcarey/instab.html --#
#-----------------------------------------------------------------------------#

Author/Artist: Motion City Soundtrack
Title: Red Dress
Album: I Am The Movie
Transcribed by: Caleb B.
Email: bonsushi@hotmail.com

I thought since nobody had a decent tab I would.

Tuned down 1/2 step to:
Eb
Bb
Gb
Db
Ab
Eb


I did not tab the strumming as you can figure that out on your own.

Yes I am lazy.

------------------------------------------------------------------------------|
------------------------------------------------------------------------------|
------------------------------------------------------------------------------|
-2----4--7---------2---4--7---------------------------------------------------|
-2----4--7---------2---4--7---------------------------------------------------|
-0----2--5---------0---2--5---------------------------------------------------|
  Guitar 2:

------------5----------------------------------------------------------------|
-----------------------------------------------------------------------------|
-----------------------------------------------------------------------------|
-----------------------------------------------------------------------------|
-----------------------------------------------------------------------------|
-----------------------------------------------------------------------------|
  Prechorus:

-----------------------------------------------------------------------------|
-----------------------------------------------------------------------------|
--6--4-2---------------------------------------------------------------------|
--6--4-2---------------------------------------------------------------------|
--4--2-0---------------------------------------------------------------------|
-----------------------------------------------------------------------------|
  Chorus:

-----------------------------------------------------------------------------|
-----------------------------------------------------------------------------|
--2--2-----2-2-----2--2-----2-2----------------------------------------------|
--2--2--4--2-2--4--2--2--4--2-2-4--------------------------------------------|
--2--2--4--2-2--4--2--2--4--2-2-4--------------------------------------------|
-----3--2----3--2-----3--2----3-2--------------------------------------------|
  Back to:

-----------------------------------------------------------------------------|
-----------------------------------------------------------------------------|
-----------------------------------------------------------------------------|
--2-4-7-------2-4-7----------------------------------------------------------|
--2-4-7-------2-4-7----------------------------------------------------------|
--0-2-5-------0-2-5----------------------------------------------------------|
  Guitar 2:

-----------5---------7-------------------------------------------------------|
-----------------------5-----------------------------------------------------|
-----------------------------------------------------------------------------|
-----------------------------------------------------------------------------|
-----------------------------------------------------------------------------|
-----------------------------------------------------------------------------|
  Then:

-------------5---------------------------------------------------------------|
-----------------------------------------------------------------------------|
---6--4-6-7------------------------------------------------------------------|
---6--4-6-7------------------------------------------------------------------|
---4--2-4-5------------------------------------------------------------------|
-----------------------------------------------------------------------------|
   Repeat from verse. Then play the bridge:

-----------------------------------------------------------------------------|
-----------------------------------------------------------------------------|
-----------6-----------------------------------------------------------------|
----2--7---6--4--2-----------------------------------------------------------|
----2--7---4--4--2-----------------------------------------------------------|
----0--5------2--0-----------------------------------------------------------|
    Verse. then play:

------------5----------------------------------------------------------------|
-----------------------------------------------------------------------------|
--6-4-6-7--------------------------------------------------------------------|
--6-4-6-7--------------------------------------------------------------------|
--4-2-4-5--------------------------------------------------------------------|
-----------------------------------------------------------------------------|
     End! <3 MCS
comments
We did not receive enough feedback on this tab! Please rate:
print report bad tab
1 2 3 4 5
I want to post or [tab]
guest
You may want to rate the tab now too:
select rating
Please do not post tabs as comments. Select "correction" instead!