Oops, an error
Loading. Please wait.

Shiver Tab

2,208 views 1 this week
no commentswrite comment
1 2 3 4 5
x 3
add to favorites
launch autoscroll
font size
0
reset
how to read this tab
guitar tuner
Autoscroll
slow
fast
+/-
esc
set tempo
stop
Help us to improve Ultimate-Guitar.com Take our survey!
×
Author
Artist: MOTION CITY SOUNDTRACK
Song: SHIVER
Album: I AM THE MOVIE
Tunning: STANDARD
Tabbed By: >>Max<<

I tabbed out both guitar 1 and guitar 2, and it may not be perfect,
but it seems pretty close to what's being played.


****GUITAR 1*********************************

INTRO P.M. (Mostly):
|-----------------------|
|-----------------------|
|-----------------------|
|-----------------------|
|-----------------  x10-|
|--9-9-9-9-9-9-9-9------|

|----------------------------------------------|
|----------------------------------------------|
|----------------------------------------------|
|--11------11------11------11------11-11-11-11-|
|----------------------------------------------|
|---9--9-9--9--9-9--9--9-9--9--9-9--9--9--9--9-|

|--------------------|
|--------------------|
|--------------------|
|--------------------|
|--------------------|  x2
|--9-9-9-9-9-9-9-9---|

|----------------------|
|----------------------|
|--10---11---10---11---|  x4
|-----/----\----/------|
|---8----9----8----9---|
|----------------------|

VERSE:
|-------------------|
|-------------------|
|-------------------|
|-------------------| x2
|-------------------|
|--9-9-9-9-9-9-9-9--|


FIRST AND THIRD END OF VERSE:
|----------------------|
|----------------------|
|--10---11---10---11---|  x4
|-----/----\----/------|
|---8----9----8----9---|
|----------------------|


SECOND END OF VERSE:
|-------------|
|-------------|
|--11-10-10---|
|--9--9--9----|  x4
|--9--9--9----|
|-------------|


FOURTH END OF VERSE:
|------------------------------------------------|
|------------------------------------------------|
|--11-11-11-10-10-10-11-11-11-13-13-13-15-15-15--|
|------------------------------------------------|
|--9--9--9--8--8---8--9--9--9-11-11-11-13-13-13--|
|------------------------------------------------|

SOLO:
|------------------------------------------------------|
|------------------------------------------------------|
|------------------------------------------------------|
|--------------4-4-6-4-4-4-6-4-------------------------|
|--4---4-6-4-6-----------------8-6-4---4-6-8-6-4-------|
|----6-------------------------------6-----------4-4-7-|


Chorus Part (Just as the radio....that right):
|-----------------------------|
|-----11----11----11----11----|
|--11----11----11----11-------|
|-----------------------------|   x7
|-----------------------------|
|-----------------------------|

|-------------------------|
|--11---------------------|
|--11---------------------|
|-------------------------|
|-------------------------|
|-------------------------|


AFTER BRIDGE, LEADING INTO CHORUS:
|--14-14-16-14--18-14-|
|---------------18-14-|
|---------------------|
|---------------------|
|---------------------|
|---------------------|


*****GUITAR 2*********************************

Strumming patterns are pretty easy to figure out, but
I did tab out how many times you play each chord in
the chorus.


INTRO:
|--------------------|
|--------------------|
|--------------------|
|--11--6--4--4--3--9-|
|--11--6--4--4--3--9-|
|--9---4--2--2--1--7-|


VERSE:
|--------------------|
|--------------------|
|--------------------|
|--4--11--9--4--3--9-|
|--4--11--9--4--3--9-|
|--2--9---7--2--1--7-|

CHORUS:
|--------------------------------|
|--------------------------------|
|--------------------------------|
|--8-----11-----9-----6-----9----|   x4
|--8-x8--11-x8--9-x8--6-x4--9-x4-|
|--6-----9------7-----4-----7----|

|------------------|
|------------------|
|------------------|
|------------------|
|----------6-6-4-4-|
|--6-6-7-7---------|

SOLO:
|--------------------|
|--------------------|
|--------------------|
|--4--11--9--4--3--9-|
|--4--11--9--4--3--9-|
|--2--9---7--2--1--7-|

|-------------|
|-------------|
|-16-15-13-11-|
|-------------|
|-14-13-11-9--|
|-------------|

BRIDGE P.M.:
|----------------------------------------------------------------------------------|
|----------------------------------------------------------------------------------|
|----------------------------------------------------------------------------------|
|----------------------------------------------------------------------------------|
|----------------------------------------------------------------------------------|
|--2-2-2-2-2-2-2-0-9-9-9-9-9-9-9-6-7-7-7-7-7-7-7-7-7-7-7-7-7-7-7-4-2-2-2-2-2-2-2-0-|


|-------------------|
|-------------------|
|-------------------|
|-------------------|
|-------------------|
|--1-1-1-1-1-1-1-1--| then there's some messing around with what sounds like a B chord...not sure here.

|----------------------------------------------------------------------------------|
|----------------------------------------------------------------------------------|
|----------------------------------------------------------------------------------|
|----------------------------------------------------------------------------------|
|----------------------------------------------------------------------------------|
|--2-2-2-2-2-2-2-0-9-9-9-9-9-9-9-6-7-7-7-7-7-7-7-7-7-7-7-7-7-7-7-4-2-2-2-2-2-2-2-0-|

|---------------------|
|---------------------|
|---------------------|
|-------------------9-|
|-------------------9-|
|--1-1-1-1-1-1-1-1--7-|

ORDER

INTRO
VERSE
CHORUS
VERSE
CHORUS
SOLO
BRIDGE
CHORUS


Sacapuntas6@yahoo.com for any questions, comments, corrections, etc.
Suggest correction
Give kudos to tab author, rate the tab!
1 2 3 4 5
comments
print report bad tab
guest
You may want to rate the tab now too:
select rating
Wanna post a correction for this tab? Suggest correction