Oops, an error
Loading. Please wait.

Skin And Bones Tab

4,926 views 9 this week
1 commentread comment
1 2 3 4 5
excellent!
x 4
add to favorites
launch autoscroll
font size
0
reset
how to read this tab
guitar tuner
Tab Pro tools
  • play this tab
  • loop segment
  • change instrument
  • show fretboard
  • metronome
×
Best way to learn
"Skin And Bones"
Autoscroll
slow
fast
+/-
esc
set tempo
stop
Contributor
Difficulty
Tuning
novice
D# G# C# F# A# D#
Artist: Motion City Soundtrack
Song: Skin and Bones
Album My Dinosaur Life

eb|---------------------|
Bb|---------------------|
Gb|--4------6-----9-----|
Db|--4 x16--6 x8--9 x8--|x4
Ab|--2------4-----7-----|
Eb|---------------------|

eb|---------------------|
Bb|---------------------|
Gb|--4------------------|
Db|--4 x8--6-----2------|x2
Ab|--2-----6 x8--2 x16--|
Eb|--------4-----0------|
  
eb|-------------------------------------------|          
Bb|-------------------------------------------|       
Gb|-4------6-----9-----4------6---------------|                   
Db|-4 x16--6 x8--9 x8--4 x16--6 x8--2---------|\     
Ab|-2------4-----7-----2------4-----2 x8------| \     
Eb|---------------------------------0---------|  \  /guitar 1    
    .      .     .     .      .     .             \/
eb|-------------------------------------------|   /\
Bb|--9-7-0-9--7-0 x3--------------------------|  /  \guitar 2
Gb|------------------4/6\4/6/8-4/6\4/6/8-6\4--| /
Db|-------------------------------------------|/
Ab|-------------------------------------------|
Eb|-------------------------------------------|

eb|-------------------------------------------|          
Bb|-------------------------------------------|       
Gb|-4------6-----9-----4------6---------------|                   
Db|-4 x16--6 x8--9 x8--4 x16--6 x8--2---------|    
Ab|-2------4-----7-----2------4-----2 x8------|      
Eb|---------------------------------0---------|
    .      .     .     .      .     .

eb|-------------------------------------------|          
Bb|-------------------------------------------|       
Gb|-4------6-----9-----4------6---------------|                   
Db|-4 x16--6 x8--9 x8--4 x16--6 x8--2~--------|    
Ab|-2------4-----7-----2------4-----2~--------|      
Eb|---------------------------------0~--------|
    .      .     .     .      .     

eb|---------------------|      
Bb|---------------------|    
Gb|--4------------------|      
Db|--4 x8--6-----2------|x4
Ab|--2-----6 x8--2 x16--|     
Eb|--------4-----0------|  

eb|----------------------|
Bb|----------------------|
Gb|--4~---6~-------------|
Db|--4~---6~---6~---7~---|x4--------------|-gutar1
Ab|--2~---4~---6~---7~---|                | starts                        
Eb|------------4~---5~---|                |  at                       
                                          |  1:44           
eb|-11h12p11-14~-11h12p11----11--------|  |                       
Bb|----------------------12~----121212-|  |                   
Gb|------------------------------------|  |-guitar2                         
Db|------------------------------------|x8/start at                          
Ab|------------------------------------|     2:13                          
Eb|------------------------------------|

eb|---------------------------|
Bb|---------------------------|
Gb|--4-----6------------------|
Db|--4 x16-6 x16-6-----7------|
Ab|--2-----4-----6 x16-7 x16--|                         
Eb|--------------4-----5------|

eb|---------------------|   ------------------|   
Bb|---------------------|   ------------------| 
Gb|--4------------------|   --4---------------|   
Db|--4 x8--6-----2------|x5 --4 x8--6-----2~--|
Ab|--2-----6 x8--2 x16--|   --2-----6 x8--2~--|  
Eb|--------4-----0------|   --------4-----0~--|

Welcome to the Hotel Hell. Check-in time in now, check-out time is never.
comments
print report bad tab
1 comment total.
0 reply
awisinger wrote on November 19 2010, 12:49 am

Great tab dude! 5 Stars, Cheers!

I want to post or [tab]
guest
You may want to rate the tab now too:
select rating
Please do not post tabs as comments. Select "correction" instead!