Oops, an error
Loading. Please wait.

The Future Freaks Me Out Bass Tab

version 1
version 1

Whole song

2,235 views 3 this week
no commentswrite comment
1 2 3 4 5
accurate
x 3
add to favorites
launch autoscroll
font size
0
reset
guitar tuner
Autoscroll
slow
fast
+/-
esc
set tempo
stop
Help us to improve Ultimate-Guitar.com Take our survey!
×
Author
----Artist - Motion City Soundtrack-----|
----Song - The Future Freaks Me Out-----|
Tuning - EADG(B) I used a 5 String Bass but it is possible on a 4
im pretty sure Matt Taylor of MCS used a 5 String though (and it just sounds generally good in my opinion)

Intro/Chorus(come in at 0:08)
G|--------------------------------------------------------||
D|--------------------------------------------------------||
A|--------------------------------------------------------||
E|-----4444----6666---------------------------------------||
B|-4444----6666-------------------------------------------||

Keep Playing this until 0:24 (4 times)
Last time on however you play this:
Chorus With Bridge
G|--------------------------------------------------------||
D|--------------------------------------------------------||
A|--------------------------------------------------------||
E|-----4444-----------------------------------------------||
B|-4444----66666666-77777777------------------------------||

Pause until (0:32)

Verse (0:32 -> 1:08)
G|--------------------------------------------------------||
D|---------------------(8)Optional Last note--------------||
A|--------------------------------------------------------||
E|--------8-(x16)-66--------------------------------------||
B|-4-(x16)------------------------------------------------||

On last time don't play the 66 on the E string, you can play the optional note but Matt 
do this in the song, it just sounds good :D

Chorus Again (1:10 -> 1:27)
G|--------------------------------------------------------||
D|--------------------------------------------------------||
A|--------------------------------------------------------||
E|-----4444----6666---------------------------------------||
B|-4444----6666-------------------------------------------||

Remember the Chorus With Bridge thing
G|--------------------------------------------------------||
D|--------------------------------------------------------||
A|--------------------------------------------------------||
E|-----4444-----------------------------------------------||
B|-4444----66666666-77777777------------------------------||

Verse (1:28)
G|--------------------------------------------------------||
D|---------------------(8)Optional Last note--------------||
A|--------------------------------------------------------||
E|--------8-(x16)-66--------------------------------------||
B|-4-(x16)------------------------------------------------||

Breif Pause at 1:42 then carry on playing more verse.

then at (2:13)
Chorus Again
G|--------------------------------------------------------||
D|--------------------------------------------------------||
A|--------------------------------------------------------||
E|-----4444----6666---------------------------------------||
B|-4444----6666-------------------------------------------||
until 2:31

In the middle interlude sorta thing you play the chorus notes after a long pause

before the pause you play 7 on the B string and slide down to 4 and let it ring.

play at 2:52
G|--------------------------------------------------------||
D|--------------------------------------------------------||
A|--------------------------------------------------------||
E|----------444444444-----------66666666------------------||
B|-44444444-----------666666666---------------------------||

on it's last time 3:14, only play this
G|--------------------------------------------------------||
D|--------------------------------------------------------||
A|--------------------------------------------------------||
E|----------444444444-------------------------------------||
B|-44444444-----------666666666---------------------------||

come back in and play some more chorus.
first time back in however at 3:17, play this
G|--------------------------------------------------------||
D|--------------------------------------------------------||
A|--------------------------------------------------------||
E|-----4------6666----------------------------------------||
B|-------6666---------------------------------------------||
then usual chrous until the end

start outro at 3:30 of
B|-------7(x16)-------------------------------------------||

Sometimes there are random pauses in the song, but that just comes with listening to 
amazingness ^^
hope you enjoyed my first tab

-----Important Note------
If you have a 4 string, you can play the 4s on the B string on 6 on the D string and the 
on the B on the 2nd on the A.

***tabbed by Sam Hughes, aka Rubber***
Suggest correction
What's this?
You can suggest a correction to this tab. Community and Mods will review your correction and vote to approve or reject it.
comments
We did not receive enough feedback on this tab! Please rate:
print report bad tab
1 2 3 4 5
guest
You may want to rate the tab now too:
select rating
Please do not post tabs as comments. Select "correction" instead!