Oops, an error
Loading. Please wait.

The Future Freaks Me Out Tab

version 1
version 1

Intro

Whole song

3,333 views 1 this week
5 commentsread comments
1 2 3 4 5
x 5
add to favorites
launch autoscroll
font size
0
reset
how to read this tab
guitar tuner
×
Best way to learn
"The Future Freaks Me Out"
Autoscroll
slow
fast
+/-
esc
set tempo
stop
Author
Difficulty
  follow
intermediate
This is the correct intro which i wrote out using 'power tab'. It uses the
same chords as the other version (Eb, Ab, Cm, Bb) but this version sounds
closer to the orginal version. The timings are as good as I can figure but
if you listen to the song you can easily work them out if it's easier.

Gtr I (E A D G B E)


  Q=135
 4/4
  Gtr I
   E  E  E  S  S  E  E  E  S  S    E  E  E  S  S  E  E  E  S  S
|-------------------------------|-------------------------------|
|-------------------------------|-------------------------------|
|-------------------------------|--8--8--8--8--8----------------|
|----------------10-10-10-10-10-|-10-10-10-10-10-12-12-12-12-12-|
|-10-10-10-10-10-11-11-11-11-11-|----------------13-13-13-13-13-|
|-11-11-11-11-11----------------|-------------------------------|


   E  E  E  S  S  E  E  E  S  S    E  E  E  S  S  E S S S S S S
|-------------------------------|--------------------------------|
|-------------------------------|--------------------------------|
|-------------------------------|--8--8--8--8--8-----------------|
|----------------10-10-10-10-10-|-10-10-10-10-10-12-x-x-x-x-x-x--|
|-10-10-10-10-10-11-11-11-11-11-|----------------13-x-x-x-x-x-x--|
|-11-11-11-11-11----------------|--------------------------------|
Suggest correction
comments
print report bad tab
5 comments total. Showing first comments.
0 reply
fret13 1,031 Aug 08, 2006 05:14 PM

perfect

0 reply
beo4 10 Aug 14, 2006 11:09 AM

non accurate - doesn't even sound good

0 reply
TheMastadon 10 Oct 28, 2006 12:52 PM

wrong

guest
You may want to rate the tab now too:
select rating
Wanna post a correction for this tab? Suggest correction