Oops, an error
Loading. Please wait.

The Future Freaks Me Out Tab

version 2
version 2

Whole song

18,422 views 36 this week
2 commentsread comments
1 2 3 4 5
excellent!
x 4
add to favorites
launch autoscroll
font size
0
reset
how to read this tab
guitar tuner
Autoscroll
slow
fast
+/-
esc
set tempo
stop
Help us to improve Ultimate-Guitar.com Take our survey!
×
Author
Difficulty
bonsushi 105
novice
#----------------------------------PLEASE NOTE--------------------------------#
#This file is the author's own work and represents their interpretation of the#
#song. You may only use this file for private study, scholarship, or research.#
#-----------------------------------------------------------------------------#
#-- File created with Instab - http://www.pconline.com/~smcarey/instab.html --#
#----------------------------------------------------------------------------#

Author/Artist: Motion City Soundtrack
Title: The Future Freaks Me Out
Album: I Am The Movie
Transcribed by: Caleb B
Email: bonsushi@hotmail.com

Tune down 1/2 step to:

eb
bb
gb
Db
Ab
Eb

------------------------------------------------------------------------------
------------------------------------------------------------------------------
----6--6--4----------6--6--4--------------------------------------------------
-2--6--6--4-------2--6--6--4--------------------------------------------------
-2--4--4--2-------2--4--4--2--------------------------------------------------
-0----------------0-----------------------------------------------------------
                                                                              

----4--------4---------------------------------------------------------------
------4-5------4-5---4-2-----------------------------------------------------
----------------------------4-2-1--------------------------------------------
-----------------------------------4-2---------------------------------------
-----------------------------------------------------------------------------
-----------------------------------------------------------------------------
                                                                              

----4--------4----------------3----------------------------------------------
------4-5------4-5--4-2----2-------------------------------------------------
-----------------------------------------------------------------------------
-----------------------------------------------------------------------------
-----------------------------------------------------------------------------
-----------------------------------------------------------------------------
    .Betty won't stop listenin to modern rock how she hates to be alone...    

-----------------------------------------------------------------------------
-----------------------------------------------------------------------------
--------6-----4--------------------------------------------------------------
----2---6-----4--------------------------------------------------------------
----2---4-----2--------------------------------------------------------------
----0------------------------------------------------------------------------
  pm...                 2nd fill:                                             

----4--------4-----------------------------4----------------4----------------
------4-5------4-5---4-2---1-1-1--0-0-0------4-5p4h5p4h5p4----4-5--4-2---12--
-----------------------------------------------------------------------------
-----------------------------------------------------------------------------
-----------------------------------------------------------------------------
-----------------------------------------------------------------------------
               Chorus:                                                        

-----------------------------------------------------------------------------
-----------------------------------------------------------------------------
-----------------------------------------------------------------------------
--2---7---4---9--------------------------------------------------------------
--2---7---4---9--------------------------------------------------------------
--0---5---2---7--------------------------------------------------------------
                 Last part of chorus goes like this                           

-----------------------------------------------------------------------------
-----------------------------------------------------------------------------
---------------12------------------------------------------------------------
-2---7--4------12------------------------------------------------------------
-2---7--4------10------------------------------------------------------------
-0---5--2--------------------------------------------------------------------
                3rd fill:               pm this part                          

--4--------4-------------------------4---------------------4-----------------
----4-5------4-5--4-2p1-1-1p0-0-0------4-5-5-5-5-5-5-5-5-----4-5--4h5h7------
-----------------------------------------------------------------------------
-----------------------------------------------------------------------------
-----------------------------------------------------------------------------
-----------------------------------------------------------------------------
                                                                              

-----------------------------------------------------------------------------
-----------------------------------------------------------------------------
------6--4-------------------------------------------------------------------
--2---6--4-------------------------------------------------------------------
--2---4--2-------------------------------------------------------------------
--0--------------------------------------------------------------------------
  Then mess around with the full chords kinda like this                       

-------0-------0-------------------------------------------------------------
-------0-------0-----5-------------------------------------------------------
-------1-------1-----6--4--2-----------12------------------------------------
--2-2-----2-2--------6--4--2-----------12------------------------------------
--2-2-----2-2--------4--2--0-----------10------------------------------------
--0-0-----0-0----------------------------------------------------------------
                                                                              

-----------------------------------------------------------------------------
-----------------------------------------------------------------------------
-----------------------------------------------------------------------------
--2--7---4---9---------------------------------------------------------------
--2--7---4---9---------------------------------------------------------------
--0--5---2---7---------------------------------------------------------------
       start bridge with:                                                     

-----------------------------------------------------------------------------
-----------------------------------------------------------------------------
--9--------------------------------------------------------------------------
--9--------------------------------------------------------------------------
--7--------------------------------------------------------------------------
-----------------------------------------------------------------------------
  fill type thing during the bridge                                           

-----------------------------------------------------------------------------
--9----7-----9-7-----5---10-10-10-9-9-9-7-7--9---7--9-7--5--10-10-10-12-12---
-----------------------------------------------------------------------------
-----------------------------------------------------------------------------
-----------------------------------------------------------------------------
-----------------------------------------------------------------------------
                                                                              

-----------------------------------------------------------------------------
-12-7-7----------------------------------------------------------------------
-----------------------------------------------------------------------------
-----------------------------------------------------------------------------
-----------------------------------------------------------------------------
-----------------------------------------------------------------------------
                                                                              

-----------------------------------------------------------------------------
-----------------------------------------------------------------------------
-----------------------------------------------------------------------------
--2--7--4--9-----------------------------------------------------------------
--2--7--4--9-----------------------------------------------------------------
--0--5--2--7-----------------------------------------------------------------
      I'm on fire                                                             

-----------------------------------------------------------------------------
-----------------------------------------------------------------------------
--9--------------------------------------------------------------------------
--9--------------------------------------------------------------------------
--7--------------------------------------------------------------------------
-----------------------------------------------------------------------------
  and now i think i'm ready                                                   

-----------------------------------------------------------------------------
-----------------------------------------------------------------------------
-----------------------------------------------------------------------------
--4---9----------------------------------------------------------------------
--4---9----------------------------------------------------------------------
--2---7----------------------------------------------------------------------
                                                                              

-----------------------------------------------------------------------------
-----------------------------------------------------------------------------
-----------------------------------------------------------------------------
--2--7--4--9-----------------------------------------------------------------
--2--7--4--9-----------------------------------------------------------------
--0--5--2--7-----------------------------------------------------------------
                                                                              

-----------------------------------------------------------------------------
-----------------------------------------------------------------------------
----------12--------------9--------------------------------------------------
--2--7----12--------------9--------------------------------------------------
--2--7----10--------------7--------------------------------------------------
--0--5-----------------------------------------------------------------------
          ^repeat until end.                                                  

Suggest correction
What's this?
You can suggest a correction to this tab. Community and Mods will review your correction and vote to approve or reject it.
comments
print report bad tab
2 comments total.
0 reply
>>Max<< 272 wrote on July 19 2007, 06:35 pm

Not perfect, but a lot better than the rest of the tabs on here so I rated it a 5 anyways.
I was waiting for someone to tab one that actually has the verse parts right.

0 reply
jsmay311 14 wrote on December 7 2009, 12:49 am

not very good, but props for being the first to catch the drop tuning.

guest
You may want to rate the tab now too:
select rating
Please do not post tabs as comments. Select "correction" instead!