Oops, an error
Loading. Please wait.

The Future Freaks Me Out Tab

version 3
version 3

Whole song

11,282 views 15 this week
5 commentsread comments
1 2 3 4 5
excellent!
x 6
add to favorites
launch autoscroll
font size
0
reset
how to read this tab
guitar tuner
Tab Pro tools
  • play this tab
  • loop segment
  • change instrument
  • show fretboard
  • metronome
×
Best way to learn
"The Future Freaks Me Out"
Autoscroll
slow
fast
+/-
esc
set tempo
stop
Contributor
Difficulty
intermediate
----------------------------------------------------------------------------
                The Future Freaks Me Out – Motion City Soundtrack
----------------------------------------------------------------------------
Tabbed by: Edmeister
Wow! This took me a day. I hope you guys and girls like it.

Tuning: Standard half step down
Intro: Josh 
e|-------------------------------------------------------------------------|
B|-------------------------------------------------------------------------|
G|------------------------------13-13-13-13-X-X----------------------------|
D|-----------------11-11-11-11--11-11-11-11-X-X--11-11-11-11---------------|
A|-11-11-11-11-14--0--0--0--0---9--9--9--9--X-X--9--9--9--9----------------|
E|-0--0--0--0--0---------------------------------7--7--7--7----------------|

Intro: Justin (on third time, intro only)
e|-------------------------------------------------------------------------|
B|---9--------9----------------------9-----9-------------------------------|
G|-----8-9------8-9-8-6~-4-2-1--------8-9----8-9-8-6~-6--------------------|
D|-----------------------------4-2-----------------------------------------|
A|-------------------------------------------------------------------------|
E|-------------------------------------------------------------------------|

Verse: Josh (1st verse only). Play four times with exception of 2nd time variation.
e|-------------------------------------------------------------------------|
B|-------------------------------------------------------------------------|
G|-------------------------------------------------------------------------|
D|-------------------------------------------------------------------------|
A|------------------------------------4-4-4-4-4-4-4-4-4-4-4-4---2-2-2------|
E|---0-0-0-0-0-0-0-0-0-0-0-0-0-0-0-0---------------------------------------|

Verse: second time variation
e|-------------------------------------------------------------------------|
B|-------------------------------------------------------------------------|
G|--------------------------------------------------------------X-X-5+-----|
D|--------------------------------------------------------------X-X--------|
A|------------------------------------4-4-4-4-4-4-4-4-4-4-4-4---X-X--------|
E|---0-0-0-0-0-0-0-0-0-0-0-0-0-0-0-0---------------------------------------|

Verse: Josh (when Justin comes in with lead riff) 
e|-------------------------------------------------------------------------|
B|-------5-----5-5-5-----5-----5-5-5------5-----5-5-5----------------------|
G|-------4-----4-4-4-----4-----4-4-4------4-----4-4-4----------------------|
D|-------6-----6-6-6-----6-----6-6-6------6-----6-6-6--6-6-6--4-4-4--------|
A|---7-7-7-7-7-7-7-7-7-7-7-7-7-7-7-7--4-4-4-4-4-4-4-4--4-4-4--2-2-2--------|
E|---0-0---0-0-------0-0---0-0---------------------------------------------|

e|----------------------------------------------------7-7-7-7--------------|
B|-------5-----5-5-5-----5-----5-5-5---------------------------------------|
G|-------4-----4-4-4-----4-----4-4-4---------------------------X-----------|
D|-------6-----6-6-6-----6-----6-6-6--6-6-6-6-6-6-6-6----------X-----------|
A|---7-7-7-7-7-7-7-7-7-7-7-7-7-7-7-7--4-4-4-4-4-4-4-4----------X—4b--------|
E|---0-0---0-0-------0-0---0-0---------------------------------------------|

Verse: Justin lead riff
e|-------------------------------------------------------------------------|
B|---9-----9----------------------9------------------9---------------------|
G|----8-9---8-9-8-6~-5-5-5-4-4-4---8-9~-p8-h9-p8-h9----8-9-8-6-------------|
D|-------------------------------------------------------------------------|
A|-------------------------------------------------------------------------|
E|-------------------------------------------------------------------------|

Chorus: Both Guitars (Play 4 times with exceptions of 2nd and 4th variations)
e|------------------------------------------------------------------------|
B|------------------------------------------------------------------------|
G|----------2-2-2-2-----------4-4-4-4-------------------------------------|
D|-2-2-2-2--2-2-2-2--4-4-4-4--4-4-4-4-------------------------------------|
A|-2-2-2-2--0-0-0-0--4-4-4-4--2-2-2-2-------------------------------------|
E|-0-0-0-0-----------2-2-2-2----------------------------------------------|

Chorus: 2nd time variation
e|------------------------------------------------------------------------|
B|------------------------------------------------------------------------|
G|----------2-2-2-2-----------X-X-X-X-------------------------------------|
D|-2-2-2-2--2-2-2-2--4-4-4-4--X-X-X-X-------------------------------------|
A|-2-2-2-2--0-0-0-0--4-4-4-4--X-X-X-X-------------------------------------|
E|-0-0-0-0-----------2-2-2-2----------------------------------------------|

Chorus: 4th time variation
e|------------------------------------------------------------------------|
B|------------------------------------------------------------------------|
G|----------2-2-2-2-------------------------------------------------------|
D|-2-2-2-2--2-2-2-2--4-4-4-4-4-4-4---5-5-5-5-5-5-5-5----------------------|
A|-2-2-2-2--0-0-0-0--4-4-4-4-4-4-4---5-5-5-5-5-5-5-5----------------------|
E|-0-0-0-0-----------2-2-2-2-2-2-2-0-3-3-3-3-3-3-3-3----------------------|

2nd Verse: Josh
e|-----------------------------------------------------X------------------|
B|-----------------------------------------------------X—5+---------------|
G|-----------------------------------------------------X----5+~-----------|
D|--2----------------------------------4-4-----6-------X-----------4-4-4--|
A|--2----------------------------------2-2-2---4-------X-----------2-2-2--|
E|--0--------------------------------------0-----------X------------------|

e|------------------------------------------------------------------------|
B|------5-----5-----5-----5-----5-----------------------------------------|
G|------4-----4-----4-----4-----4-----------------------------------------|
D|------6-----6-----6-----6-----6--------6-4-6-4-6--6-6-6--4-4-4----------|
A|--7-7-7-7-7-7-7-7-7-7-7-7-7-7-7-7--4-4-4-4-4-4-4--4-4-4--2-2-2----------|
E|--0-0---0-0---0-0---0-0---0-0---0---------------------------------------|

e|------------------------------------------------------7-7-7-7-----------|
B|------5-----5-----5-----5-----5-----------------------------------------|
G|------4-----4-----4-----4-----4--------------------------------X--------|
D|------6-----6-----6-----6-----6------6-6-6-6-6-6-6-6-----------X--------|
A|--7-7-7-7-7-7-7-7-7-7-7-7-7-7-7-7----4-4-4-4-4-4-4-4-----------X—4b-----|
E|--0-0---0-0---0-0---0-0---0-0---0---------------------------------------|

2nd verse: Justin lead riff
e|------------------------------------------------------------------------|
B|---9-----9-----------------------9--------------9-----------------------|
G|----8-9---8-9-8-6~--5-5-5---------8-9-8-9-8-9----8-9-8/9/11-------------|
D|------------------------------------------------------------------------|
A|------------------------------------------------------------------------|
E|----------------------------/7\------------------------------------------|

Chorus: Both Guitars (Play 4 times with exceptions of 2nd and 4th variations)
e|------------------------------------------------------------------------|
B|------------------------------------------------------------------------|
G|----------2-2-2-2-----------4-4-4-4-------------------------------------|
D|-2-2-2-2--2-2-2-2--4-4-4-4--4-4-4-4-------------------------------------|
A|-2-2-2-2--0-0-0-0--4-4-4-4--2-2-2-2-------------------------------------|
E|-0-0-0-0-----------2-2-2-2----------------------------------------------|

Chorus: 2nd time variation
e|------------------------------------------------------------------------|
B|------------------------------------------------------------------------|
G|----------2-2-2-2-----------X-X-X-X-------------------------------------|
D|-2-2-2-2--2-2-2-2--4-4-4-4--X-X-X-X-------------------------------------|
A|-2-2-2-2--0-0-0-0--4-4-4-4--X-X-X-X-------------------------------------|
E|-0-0-0-0-----------2-2-2-2----------------------------------------------|

Chorus: 4th time variation
e|------------------------------------------------------------------------|
B|------------------------------------------------------------------------|
G|----------2-2-2-2-------------------------------------------------------|
D|-2-2-2-2--2-2-2-2--4-4-4-4-4-4-4---5-5-5-5-5-5-5-5---2------------------|
A|-2-2-2-2--0-0-0-0--4-4-4-4-4-4-4---5-5-5-5-5-5-5-5---2------------------|
E|-0-0-0-0-----------2-2-2-2-2-2-2-0-3-3-3-3-3-3-3-3---0------------------|

Riff After 2nd Chorus: Josh
e|------------------------------------------------------------------------|
B|-----------------------------------------14-----17-14-------17------17--|
G|--------------13\11------------------------16-13------16-13----16-13----|
D|--------9/11--11--------------------------------------------------------|
A|---11--—0-----7-------9-9-9-9-9-9-9-9-----------------------------------|
E|---0------------------7-7-7-7-7-7-7-7-----------------------------------|

e|----16-14-------------------------------------16-14---16/14/12/9-16/14/-|
B|--14-----17-14-------17-14-----17-14-----17-14-----17-------------------|
G|---------------16-13------16-13-----16-13-------------------------------|
D|------------------------------------------------------------------------|
A|------------------------------------------------------------------------|
E|------------------------------------------------------------------------|

e|--12/9------------------------------------------------------------------|
B|------------------------------------------------------------------------|
G|------------------------------------------------------------------------|
D|---------5-5-5-5-5-5-5-5------------------------------------------------|
A|---------5-5-5-5-5-5-5-5------------------------------------------------|
E|---------3-3-3-3-3-3-3-3------------------------------------------------|

Riff after 2nd Chorus” Justin
e|------------------------------------------------------------------------|
B|--9---9-7-5/10-9-7-9---7/9-7-5-10-10-10-12-12-12------------------------|
G|---4/6--------------4/6-------------------------11----------------------|
D|------------------------------------------------------------------------|
A|------------------------------------------------------------------------|
E|------------------------------------------------------------------------|

Chorus: Both Guitars (Play 4 times with exceptions of 2nd and 4th variations)
e|------------------------------------------------------------------------|
B|------------------------------------------------------------------------|
G|-2-----------4-4-4-4-----------2-2-2------------------------------------|
D|-2--4-4-4-4--4-4-4-4--2-2-2-2--2-2-2------------------------------------|
A|-0--4-4-4-4--2-2-2-2--2-2-2-2--0-0-0------------------------------------|
E|----2-2-2-2-----------0-0-0-0-------------------------------------------|

Chorus: 2nd time variation
e|------------------------------------------------------------------------|
B|------------------------------------------------------------------------|
G|----------2-2-2-2-----------X-X-X-X-------------------------------------|
D|-2-2-2-2--2-2-2-2--4-4-4-4--X-X-X-X-------------------------------------|
A|-2-2-2-2--0-0-0-0--4-4-4-4--X-X-X-X-------------------------------------|
E|-0-0-0-0-----------2-2-2-2----------------------------------------------|

Chorus: 4th time variation
e|------------------------------------------------------------------------|
B|------------------------------------------------------------------------|
G|----------2-2-2-2-------------------------------------------------------|
D|-2-2-2-2--2-2-2-2--4-4-4-4-4-4-4---5-5-5-5-5-5-5-5\---------------------|
A|-2-2-2-2--0-0-0-0--4-4-4-4-4-4-4---5-5-5-5-5-5-5-5\---------------------|
E|-0-0-0-0-----------2-2-2-2-2-2-2-0-3-3-3-3-3-3-3-3\---------------------|


| /  slide up
| \  slide down
| h  hammer-on
| p  pull-off
| ~  vibrato
| +  harmonic
| x  Mute note
============================================================================




comments
print report bad tab
5 comments total. Showing first comments.
0 reply
>>Max<< wrote on August 16 2007, 03:58 pm

That sounds pretty damn perfect.

0 reply
Sub_urban12 wrote on April 1 2008, 04:59 pm

Perfect. Beautiful. One thing though: how exactly do you finger
e----|
B----|
G-13-|
D-11-|
A-7--|
E----|
while staying on time? Crazy chord.

Anyway, this is an amazing tab, great work!

0 reply
>>Max<< wrote on June 22 2009, 04:32 pm

^^^^

e----|
B-9--|
G-6--|
D----|
A-7--|
E----|

You could play that instead

I want to post or [tab]
guest
You may want to rate the tab now too:
select rating
Please do not post tabs as comments. Select "correction" instead!