Oops, an error
Loading. Please wait.

The Sun Woke The Whole State Bass Tab

435 views 1 this week
no commentswrite comment
1 2 3 4 5
please rate
add to favorites
launch autoscroll
font size
0
reset
guitar tuner
Autoscroll
slow
fast
+/-
esc
set tempo
stop
Help us to improve Ultimate-Guitar.com Take our survey!
×
Author
Difficulty
novice
Band: Motion City Soundtrack
Song: The Sun Woke The Whole State (Limbeck Cover)
Bassist: Matt Taylor
Tabber: Jennings Gray

h= hammer on (duh!)
~= Hold out!


   Intro/Post-Chorus   00:19
G:---------------------------------------------------------------------|
D:---------------------------------------------------------------------|
A:44444444-11111111------------------44444444/888866668888888888888888-|
E:------------------1111111111111111-----------------------------------|


     Verse
G:-----------------------------------                G:---------|
D:-----------------------------------                D:---------|
A:------------------444-3333---------     (4th time: A:4~-3~----|
E:44444444-66666666----------22222222                E:------2~-|


     Chorus
G:---------------------------------------|
D:---------------------------------------|
A:--------------1h3h1----------111-------|
E:11111111-2222-------44444444-----44444-|


     Bridge (pt.1)
G:--------------------------------------|
D:-----------------------------------3--|
A:111111-----------------------6-4646-4-|
E:-------4h1h22222222-44444444----------|

     Bridge (pt.2)
G:-----------------------------------|
D:-----------------------------------|
A:111111-----------------------------|
E:-------4h1h22222222-4--------------|

     Bridge (pt.3)
G:------------------------------------|
D:------------------------------------|
A:111111------------------------------|
E:-------4h1h22222222-4444444444444---|

Thats it guys!!!!
this is personally my fave song by MCS. most have never heared it. but its awesome.

                         Song Key:
			   Intro
			   Verse (4x)
                           Chorus (2x)
                           Intro
                           Verse (4x)
                           Chorus (2x)
                           Bridge pt.1 (2x)
                           Bridge pt.2
                           Bridge pt.3
                           Chorus (2x)
                           Intro  (3x) <------- hint: listen to the song for this one!
Suggest correction
Give kudos to tab author, rate the tab!
1 2 3 4 5
comments
print report bad tab
guest
You may want to rate the tab now too:
select rating
Please do not post tabs as comments. Select "correction" instead!