Oops, an error
Loading. Please wait.

The Weakends Tab

version 2
version 2

Whole song

Interactive

648 views 6 this week
no commentswrite comment
1 2 3 4 5
please rate
add to favorites
launch autoscroll
font size
0
reset
how to read this tab
guitar tuner
Autoscroll
slow
fast
+/-
esc
set tempo
stop
Help us to improve Ultimate-Guitar.com Take our survey!
×
Author
I'm pretty sure that this is Justin's part. 
Haven't figured out Josh's but hey 
at least I got something! Rate, Comment and enjoy! =)

Intro/Verse
e|--------------------------------------------------------|
B|-------------8/6~----6-4--------------------------------|
G|-10p8h10~---------------6-------------------------------|
D|-------------------------6/8-6-4-3h4--------------------|
A|----------6/8----4/6------------------------------------|
E|--------------------------------------------------------|

Pre-verse pt 1
e|---------------------------------------------------------------|
B|---------------------------------------------------------------|
G|--1010--33-3-4-3-4---1010--33xxxx---1010--33-3-4-3-4--1010-88-6|
D|--xx----xx-x-x-x-x---xx----xxxxxx---xx----xx-x-x-x-x--xx---xx-x|
A|--88----11-1/2-1/2---88----11xxxx---88----11-1/2-1/2--88---66-4|
E|---------------------------------------------------------------|

Pre-verse pt2
e|---------------------------------|
B|---------------------------------|
G|--13-11-10-11-8-10--13-11-10-11-8|
D|--x--x--x--x--x-x---x--x--x--x--x|
A|--11-9--8--9--6/8---11-9--8--9--6|
E|---------------------------------|

Intro/Verse (quicksand...core)
e|--------------------------------------------------------|
B|-------------8/6~----6-4--------------------------------|
G|-10p8h10~---------------6-------------------------------|
D|-------------------------6/8-6-4-3h4--------------------|
A|----------6/8----4/6------------------------------------|
E|--------------------------------------------------------|


Chorus (I'll kick tomorrow...down the drain) x2
e|-------------------------------------------------------------------|
B|-------------------------------------------------------------------|
G|-6666666666666666------------------3333333333332222----------------|
D|-6666666666666666-4444444444444444-3333333333332222-44444444444444-|
A|-4444444444444444-4444444444444444-1111111111110000-44444444444444-|
E|------------------2222222222222222------------------22222222222222-|

Pre-verse pt 1
e|---------------------------------------------------------------|
B|---------------------------------------------------------------|
G|--1010--33-3-4-3-4---1010--33xxxx---1010--33-3-4-3-4--1010-88-6|
D|--xx----xx-x-x-x-x---xx----xxxxxx---xx----xx-x-x-x-x--xx---xx-x|
A|--88----11-1/2-1/2---88----11xxxx---88----11-1/2-1/2--88---66-4|
E|---------------------------------------------------------------|

Pre-verse pt2
e|---------------------------------|
B|---------------------------------|
G|--13-11-10-11-8-10--13-11-10-11-8|
D|--x--x--x--x--x-x---x--x--x--x--x|
A|--11-9--8--9--6/8---11-9--8--9--6|
E|---------------------------------|

Intro/Verse (shorelines all around...perfect time to start)
e|--------------------------------------------------------|
B|-------------8/6~----6-4--------------------------------|
G|-10p8h10~---------------6-------------------------------|
D|-------------------------6/8-6-4-3h4--------------------|
A|----------6/8----4/6------------------------------------|
E|--------------------------------------------------------|


Chorus(I'll kick tomorrow...down the drain)x2
e|-------------------------------------------------------------------|
B|-------------------------------------------------------------------|
G|-6666666666666666------------------3333333333332222----------------|
D|-6666666666666666-4444444444444444-3333333333332222-44444444444444-|
A|-4444444444444444-4444444444444444-1111111111110000-44444444444444-|
E|------------------2222222222222222------------------22222222222222-|

Bridge (I'll kick tomorrow...) x4
e|--------------------------------------------------------------------|
B|--------------------------------------------------------------------|
G|--------------------------------------------------------------------|
D|--------------------------------------------------------------------|
A|----------------------------------------------------------------0000|
E|-99-99-99-99-9999-99-99-99-99-9999-99-99-99-99-9999-99-99-99-99-----|

Chorus x2
e|-------------------------------------------------------------------|
B|-------------------------------------------------------------------|
G|-6666666666666666------------------3333333333332222----------------|
D|-6666666666666666-4444444444444444-3333333333332222-44444444444444-|
A|-4444444444444444-4444444444444444-1111111111110000-44444444444444-|
E|------------------2222222222222222------------------22222222222222-|

Outro

e|--------------------------------------------------|
B|--------------------------------------------------|
G|-6666666666666666------------------333333333333---|
D|-6666666666666666-4444444444444444-333333333333-4~|
A|-4444444444444444-4444444444444444-111111111111-4~|
E|------------------2222222222222222--------------2~|
Suggest correction
What's this?
You can suggest a correction to this tab. Community and Mods will review your correction and vote to approve or reject it.
comments
We did not receive enough feedback on this tab! Please rate:
print report bad tab
1 2 3 4 5
guest
You may want to rate the tab now too:
select rating
Please do not post tabs as comments. Select "correction" instead!