Oops, an error
Loading. Please wait.

This Is For Real Bass Tab

version 1
version 1

Whole song

Interactive

8,799 views 9 this week
6 commentsread comments
1 2 3 4 5
excellent!
x 10
add to favorites
launch autoscroll
font size
0
reset
guitar tuner
Tab Pro tools
  • play this tab
  • loop segment
  • change instrument
  • show fretboard
  • metronome
Autoscroll
slow
fast
+/-
esc
set tempo
stop
Contributor
Intro
G|0000|
D|0000|
A|0000|
E|-0-7~|

Verse
G|-----------------------------------------------------|x2
D|-----------------------------------------------------|
A|-----------------000-2-4-2---------------------------|
E|-000-2-4-0-------------------000-2-4-0-555-4-2-0-2-0-|

Pre-Chorus
G|-----------------------------------|
D|-----------------------------------|
A|22222222-00000000-44444444-22222222|
E|-----------------------------------|

Chorus
G|-----------------------------|
D|-----------------------------|
A|------------------------2222-|
E|00-55-44-55-00-55-2222-------|

G|--------------------------------------|
D|--------------------------------------|
A|----------------------------2222-0000-|
E|00-55-44-55-00-55-22222222------------|

Verse x3
Pre-Chorus x1
Chorus x1

2nd Part To Chorus
G|-------------------| x4        G|-----------------|
D|-------------------|           D|-----------------|
A|-------------------|           A|---------33333333|
E|0000-5555-9999-7777|           E|55555555---------|

Bridge
G|---------------------------------| x3
D|---------------------------------|
A|---------------------------------|
E|4444444-0000000-88888888-00000000|

G|---------------------------------| x3
D|---------------------------------|
A|---------------------------------|
E|4444444-0000000-88888888-77777777|

Come Back In With This
|-------------------|
|-------------------|
|-------------------|
|0000000000000000000|


2nd Part To Chorus And Ending
G|-------------------| x8       G|----------------|
D|-------------------|          D|----------------|
A|-------------------|          A|--------33333333|
E|0000-5555-9999-7777|          E|5555555---------|
comments
print report bad tab
6 comments total. Showing first comments.
0 reply
runningham_4 wrote on October 16 2007, 09:26 pm

I messed it up I just realized. Its 5 then three on the A string. sry.

0 reply
bjarne_ wrote on October 17 2007, 01:56 am

You can update your tab, you know.

0 reply
TheBassMan3 wrote on November 27 2007, 04:28 pm

that intro is ****ed

I want to post or [tab]
guest
You may want to rate the tab now too:
select rating
Please do not post tabs as comments. Select "correction" instead!