Oops, an error
Loading. Please wait.

Time Turned Fragile Bass Tab

version 2
version 2

Whole song

535 views 1 this week
1 commentread comment
1 2 3 4 5
accurate
x 3
add to favorites
launch autoscroll
font size
0
reset
guitar tuner
Tab Pro tools
  • play this tab
  • loop segment
  • change instrument
  • show fretboard
  • metronome
×
Best way to learn
"Time Turned Fragile"
Autoscroll
slow
fast
+/-
esc
set tempo
stop
Motion City Soundtrack
"Time Turned Fragile"
-Commit This To Memory


Chorus (0:00)
G|---------------------------------------||
D|---------------------------------------||
A|-666------333--666---------------------|| x4
E|------444------------------------------||

Verse (0:10)
G|-------------------------------------||
D|-------------------------------------||
A|--66----33--6666---------------------|| x4
E|-----44----------4444----------------||

Pre-Chorus (0:30)
G|------------------------------------||
D|------------------------------------||
A|------------------------------------|| x4
E|--66666666--88884444----------------||

Chorus (0:41)
G|----------------------------------||
D|----------------------------------||
A|-666-----333--666-----------------|| x4
E|-----444--------------------------||

Verse (0:51)
G|------------------------------------------------||
D|------------------------------------------------||
A|--66-----33---6666------------------------------|| x2
E|------44------------4444------------------------||

Pre-Chorus (1:02)
G|--------------------------------------||
D|--------------------------------------||
A|--------------------------------------|| x4
E|--66666666--88884444------------------||
(1:12)
G|-------------------------------------------------------------||
D|-------------------------------------------------------------||
A|------------------------33333333-44444444--------------------||  x3
E|-1111--444--1111--444----------------------------------------||

Chorus (1:27)  [let the A|-6  ring out the last time]
G|----------------------------------||
D|----------------------------------||
A|-666------333--666----------------|| x4
E|-----444--------------------------||

Bridge (1:51)
G|-----------------------------------||
D|-----------------------------------||
A|--6-------------6~-7~--------------||
E|-----1-4----4----------------------||

Chorus (2:00)
G|------------------------------------||
D|------------------------------------||
A|-666-----333--666-------------------|| x4
E|-----444----------------------------||

(2:10)
G|---------------------------------------=---------------||
D|-------------------------------------------------------||
A|-------------33333333-44444444-------------------------||
E|-1111--1111---------------------4~---------------------||

Outro (2:25) [Seriously listen to the song for the rhythm of this]
G|--------------------------------------------------------------------------||
D|--------------------------------------------------------------------------||
A|--------------------------------------------------------------------------||x4
E|--44444444444444-/-1313131313131313131313131313\-888888888888888888886----||

(3:07)
G|------------------------------------------------------------------||
D|------------------------------------------------------------------||
A|--------3~--------------------------------------------------------||  x4
E|--4~-1~---4~ -----------------------------------------------------||
comments
We did not receive enough feedback on this tab! Please rate:
print report bad tab
1 2 3 4 5
1 comment total.
0 reply
shiek wrote on February 24 2006, 08:54 pm

Yeah this one's right... except near the end it gets confusing right notes but I think the strumming is a bit off, other wise this is really good.

I want to post or [tab]
guest
You may want to rate the tab now too:
select rating
Please do not post tabs as comments. Select "correction" instead!