Oops, an error
Loading. Please wait.

Timelines Tab

1,794 views 6 this week
1 commentread comment
1 2 3 4 5
please rate
add to favorites
launch autoscroll
font size
0
reset
how to read this tab
guitar tuner
Tab Pro tools
  • play this tab
  • loop segment
  • change instrument
  • show fretboard
  • metronome
×
Best way to learn
"Timelines"
Autoscroll
slow
fast
+/-
esc
set tempo
stop
Contributor
Difficulty
Tuning
novice
D# G# C# F# A# D#
-------------------------------------------------------------------------------
                      Motion City Sountrack - Timelines (Acoustic)
-------------------------------------------------------------------------------


Tuning: 1/2 Step down (D#-G#-C#-F#-A#-D#)

This tab is for the acoustic version played in their IHeartRadio Charlotte studio performance.

Intro: xx503x (x16)


1st Verse and between verses:

D#|---------------------------------------------------------------------------|
A#|-3-3-3-3-3-3-3-3-0-0-0-0-7-7-7-7--8-----10----12-----8----10-----8---------|
F#|-0-0-0-0-0-0-0-0-0-0-0-0-0-0-0-0--0-x12--0-x4--0-x8--0-x4--0-x4--0-x16-----| x2
C#|-5-5-5-5-5-5-5-5-5-5-5-5-5-5-5-5-10-----10----12-----9-----9----10---------|
G#|---------------------------------------------------------------------------|
D#|---------------------------------------------------------------------------|

2nd Verse:

D#|---------------------------------------------------------------------------|
A#|-3-------------------------------------------------------------------------|
F#|-0-x64---------------------------------------------------------------------|
C#|-5-------------------------------------------------------------------------|
G#|---------------------------------------------------------------------------|
D#|---------------------------------------------------------------------------|

D#|---------------------------------------------------------------------------|
A#|-3-3-3-3-3-3-3-3-0-0-0-0-7-7-7-7--8-----10----12-----8----10-----8---------|
F#|-0-0-0-0-0-0-0-0-0-0-0-0-0-0-0-0--0-x12--0-x4--0-x8--0-x4--0-x4--0-x16-----|
C#|-5-5-5-5-5-5-5-5-5-5-5-5-5-5-5-5-10-----10----12-----9-----9----10---------|
G#|---------------------------------------------------------------------------|
D#|---------------------------------------------------------------------------|

Chorus:

D#|---3---3-----3-----3-----3-3-----3----0----3-------------------------------|
A#|---------3-----3-----3-----3-----3----0----3-------------------------------|
F#|-0---0-----0-----0-----0---0-x16-0-x8-0-x8-0-x16---------------------------|
C#|---------------------------x-----0----2----x-------------------------------|
G#|---------------------------3-----x----2----3-------------------------------|
D#|---------------------------------3----0------------------------------------|

D#|-3----x----3----3-----3----0----3------------------------------------------|
A#|-3----3----3----3-----3----0----3------------------------------------------|
F#|-0-x8-0-x4-0-x4-0-x16-0-x8-0-x8-0-x16--------------------------------------|
C#|-0----x----0----x-----0----2----x------------------------------------------|
G#|-x----2----x----3-----x----2----3------------------------------------------|
D#|-3---------3----------3----0-----------------------------------------------|

3rd Verse:

D#|---------------------------------------------------------------------------|
A#|-3-------------------------------------------------------------------------|
F#|-0-x64---------------------------------------------------------------------|
C#|-5-------------------------------------------------------------------------|
G#|---------------------------------------------------------------------------|
D#|---------------------------------------------------------------------------|

D#|---------------------------------------------------------------------------|
A#|-3-3-3-3-3-3-3-3-0-0-0-0-7-7-7-7--8-----10----12-----8----10-----8---------|
F#|-0-0-0-0-0-0-0-0-0-0-0-0-0-0-0-0--0-x12--0-x4--0-x8--0-x4--0-x4--0-x16-----|
C#|-5-5-5-5-5-5-5-5-5-5-5-5-5-5-5-5-10-----10----12-----9-----9----10---------|
G#|---------------------------------------------------------------------------|
D#|---------------------------------------------------------------------------|

Chorus:

D#|---3---3-----3-----3-----3-3-----3----0----3-------------------------------|
A#|---------3-----3-----3-----3-----3----0----3-------------------------------|
F#|-0---0-----0-----0-----0---0-x16-0-x8-0-x8-0-x16---------------------------|
C#|---------------------------x-----0----2----x-------------------------------|
G#|---------------------------3-----x----2----3-------------------------------|
D#|---------------------------------3----0------------------------------------|

D#|-3----x----3----3-----3----0----3------------------------------------------|
A#|-3----3----3----3-----3----0----3------------------------------------------|
F#|-0-x8-0-x4-0-x4-0-x16-0-x8-0-x8-0-x16--------------------------------------|
C#|-0----x----0----x-----0----2----x------------------------------------------|
G#|-x----2----x----3-----x----2----3------------------------------------------|
D#|-3---------3----------3----0-----------------------------------------------|

Bridge:
 Am             Cm      Csus2     G
 Take it in and hold on while you can
 G
 All the destruction will one day end
            Am           Cm      Csus2~       G
 And you'll finally know exactly who you are
                       
 It's just a matter of timing

Chorus:

D#|-3-----3----0----3---------------------------------------------------------|
A#|-3-----3----0----3---------------------------------------------------------|
F#|-0-x16-0-x8-0-x8-0-x16-----------------------------------------------------|
C#|-x-----0----2----x---------------------------------------------------------|
G#|-3-----x----2----3---------------------------------------------------------|
D#|-------3----0--------------------------------------------------------------|

D#|-3----x----3----3-----3----0----3------------------------------------------|
A#|-3----3----3----3-----3----0----3------------------------------------------|
F#|-0-x8-0-x4-0-x4-0-x16-0-x8-0-x8-0-x16--------------------------------------| x2
C#|-0----x----0----x-----0----2----x------------------------------------------|
G#|-x----2----x----3-----x----2----3------------------------------------------|
D#|-3---------3----------3----0-----------------------------------------------|

Outro:
       Am                         Cm
Do you ever wonder how you got to here?

(End on F7 - x33545)

************************************

| /   slide up
| \   slide down
| h   hammer-on
| p   pull-off
| ~   vibrato
| +   harmonic
| x   Mute note
| b   Bend
| pb  Pre-bend
| br  Bend release
| pbr Pre-bend release
| brb Bend release bend

************************************
comments
We did not receive enough feedback on this tab! Please rate:
print report bad tab
1 2 3 4 5
1 comment total.
0 reply
jBracken_2010 wrote on September 14 2012, 12:44 am

Brilliant dude. 5*. One of my favorites, please do more, specifically from Go or Even if it kills me.

I want to post or [tab]
guest
You may want to rate the tab now too:
select rating
Please do not post tabs as comments. Select "correction" instead!